  0
SECTION
  2
HEADER
  9
$ACADVER
  1
AC1009
  9
$INSBASE
 10
0.0
 20
0.0
 30
0.0
  9
$EXTMIN
 10
-0.0020751003151815
 20
-0.0013427119686398
 30
-0.0000000349181948
  9
$EXTMAX
 10
34.00207541697452
 20
22.00134291686587
 30
0.0000000814935746
  9
$LIMMIN
 10
0.0
 20
0.0
  9
$LIMMAX
 10
34.0
 20
22.0
  9
$ORTHOMODE
 70
     1
  9
$REGENMODE
 70
     0
  9
$FILLMODE
 70
     1
  9
$QTEXTMODE
 70
     0
  9
$MIRRTEXT
 70
     1
  9
$DRAGMODE
 70
     2
  9
$LTSCALE
 40
1.0
  9
$OSMODE
 70
     0
  9
$ATTMODE
 70
     1
  9
$TEXTSIZE
 40
0.125
  9
$TRACEWID
 40
0.05
  9
$TEXTSTYLE
  7
LEROY
  9
$CLAYER
  8
REV-A
  9
$CELTYPE
  6
BYLAYER
  9
$CECOLOR
 62
   256
  9
$DIMSCALE
 40
1.0
  9
$DIMASZ
 40
0.18
  9
$DIMEXO
 40
0.0625
  9
$DIMDLI
 40
0.38
  9
$DIMRND
 40
0.0
  9
$DIMDLE
 40
0.0
  9
$DIMEXE
 40
0.18
  9
$DIMTP
 40
0.0
  9
$DIMTM
 40
0.0
  9
$DIMTXT
 40
0.18
  9
$DIMCEN
 40
0.09
  9
$DIMTSZ
 40
0.0
  9
$DIMTOL
 70
     0
  9
$DIMLIM
 70
     0
  9
$DIMTIH
 70
     1
  9
$DIMTOH
 70
     1
  9
$DIMSE1
 70
     0
  9
$DIMSE2
 70
     0
  9
$DIMTAD
 70
     0
  9
$DIMZIN
 70
     0
  9
$DIMBLK
  1

  9
$DIMASO
 70
     1
  9
$DIMSHO
 70
     1
  9
$DIMPOST
  1

  9
$DIMAPOST
  1

  9
$DIMALT
 70
     0
  9
$DIMALTD
 70
     2
  9
$DIMALTF
 40
25.399999999999999
  9
$DIMLFAC
 40
2.0
  9
$DIMTOFL
 70
     0
  9
$DIMTVP
 40
0.0
  9
$DIMTIX
 70
     0
  9
$DIMSOXD
 70
     0
  9
$DIMSAH
 70
     0
  9
$DIMBLK1
  1

  9
$DIMBLK2
  1

  9
$DIMSTYLE
  2
STANDARD
  9
$DIMCLRD
 70
     0
  9
$DIMCLRE
 70
     0
  9
$DIMCLRT
 70
     0
  9
$DIMTFAC
 40
1.0
  9
$DIMGAP
 40
0.09
  9
$LUNITS
 70
     5
  9
$LUPREC
 70
     5
  9
$SKETCHINC
 40
0.1
  9
$FILLETRAD
 40
0.0
  9
$AUNITS
 70
     0
  9
$AUPREC
 70
     0
  9
$MENU
  1
acad
  9
$ELEVATION
 40
0.0
  9
$PELEVATION
 40
0.0
  9
$THICKNESS
 40
0.0
  9
$LIMCHECK
 70
     0
  9
$BLIPMODE
 70
     0
  9
$CHAMFERA
 40
0.0
  9
$CHAMFERB
 40
0.0
  9
$SKPOLY
 70
     0
  9
$TDCREATE
 40
2449911.563921412
  9
$TDUPDATE
 40
2451935.4549495359
  9
$TDINDWG
 40
0.0045467593
  9
$TDUSRTIMER
 40
0.0045467593
  9
$USRTIMER
 70
     1
  9
$ANGBASE
 50
0.0
  9
$ANGDIR
 70
     0
  9
$PDMODE
 70
     0
  9
$PDSIZE
 40
0.0
  9
$PLINEWID
 40
0.0
  9
$COORDS
 70
     2
  9
$SPLFRAME
 70
     0
  9
$SPLINETYPE
 70
     6
  9
$SPLINESEGS
 70
     8
  9
$ATTDIA
 70
     0
  9
$ATTREQ
 70
     1
  9
$HANDLING
 70
 12289
  9
$HANDSEED
  5
436
  9
$SURFTAB1
 70
     6
  9
$SURFTAB2
 70
     6
  9
$SURFTYPE
 70
     6
  9
$SURFU
 70
     6
  9
$SURFV
 70
     6
  9
$UCSNAME
  2

  9
$UCSORG
 10
0.0
 20
0.0
 30
0.0
  9
$UCSXDIR
 10
1.0
 20
0.0
 30
0.0
  9
$UCSYDIR
 10
0.0
 20
1.0
 30
0.0
  9
$PUCSNAME
  2

  9
$PUCSORG
 10
0.0
 20
0.0
 30
0.0
  9
$PUCSXDIR
 10
1.0
 20
0.0
 30
0.0
  9
$PUCSYDIR
 10
0.0
 20
1.0
 30
0.0
  9
$USERI1
 70
     0
  9
$USERI2
 70
     0
  9
$USERI3
 70
     0
  9
$USERI4
 70
     0
  9
$USERI5
 70
     0
  9
$USERR1
 40
0.0
  9
$USERR2
 40
0.0
  9
$USERR3
 40
0.0
  9
$USERR4
 40
0.0
  9
$USERR5
 40
0.0
  9
$WORLDVIEW
 70
     1
  9
$SHADEDGE
 70
     3
  9
$SHADEDIF
 70
    70
  9
$TILEMODE
 70
     1
  9
$MAXACTVP
 70
    16
  9
$PLIMCHECK
 70
     0
  9
$PEXTMIN
 10
1.0000000000000000E+020
 20
1.0000000000000000E+020
 30
1.0000000000000000E+020
  9
$PEXTMAX
 10
-1.0000000000000000E+020
 20
-1.0000000000000000E+020
 30
-1.0000000000000000E+020
  9
$PLIMMIN
 10
0.0
 20
0.0
  9
$PLIMMAX
 10
12.0
 20
9.0
  9
$UNITMODE
 70
     0
  9
$VISRETAIN
 70
     0
  9
$PLINEGEN
 70
     0
  9
$PSLTSCALE
 70
     0
  0
ENDSEC
  0
SECTION
  2
TABLES
  0
TABLE
  2
VPORT
 70
     2
  0
VPORT
  2
*ACTIVE
 70
     0
 10
0.0
 20
0.0
 11
1.0
 21
1.0
 12
17.000000158329669
 22
11.00000010244861
 13
0.0
 23
0.0
 14
0.125
 24
0.125
 15
0.0
 25
0.0
 16
0.0
 26
0.0
 36
1.0
 17
0.0
 27
0.0
 37
0.0
 40
22.23758974586833
 41
1.787878787878787
 42
50.0
 43
0.0
 44
0.0
 50
0.0
 51
0.0
 71
     0
 72
   100
 73
     1
 74
     0
 75
     1
 76
     0
 77
     0
 78
     0
  0
ENDTAB
  0
TABLE
  2
LTYPE
 70
    49
  0
LTYPE
  2
CONTINUOUS
 70
     0
  3
Solid line
 72
    65
 73
     0
 40
0.0
  0
LTYPE
  2
CENTER
 70
     0
  3
____ _ ____ _ ____ _ ____ _ ____ _ ____ _ ____ 
 72
    65
 73
     4
 40
2.0
 49
1.25
 49
-0.25
 49
0.25
 49
-0.25
  0
LTYPE
  2
HIDDEN2
 70
     0
  3
_ _ _ _ _ _ _ _ _ _ _ _ _ _ _ _ _ _ _ _ _ _ _ _
 72
    65
 73
     2
 40
0.1875
 49
0.125
 49
-0.0625
  0
LTYPE
  2
PHANTOM2
 70
     0
  3
___ _ _ ___ _ _ ___ _ _ ___ _ _ ___ _ _ ___ _ _
 72
    65
 73
     6
 40
1.25
 49
0.625
 49
-0.125
 49
0.125
 49
-0.125
 49
0.125
 49
-0.125
  0
LTYPE
  2
BORDER
 70
     0
  3
__ __ . __ __ . __ __ . __ __ . __ __ . __ __ .
 72
    65
 73
     6
 40
1.75
 49
0.5
 49
-0.25
 49
0.5
 49
-0.25
 49
0.0
 49
-0.25
  0
LTYPE
  2
BORDER2
 70
     0
  3
__.__.__.__.__.__.__.__.__.__.__.__.__.__.__.__
 72
    65
 73
     6
 40
0.875
 49
0.25
 49
-0.125
 49
0.25
 49
-0.125
 49
0.0
 49
-0.125
  0
LTYPE
  2
BORDERX2
 70
     0
  3
____  ____  .  ____  ____  .  ____  ____  .  __
 72
    65
 73
     6
 40
3.5
 49
1.0
 49
-0.5
 49
1.0
 49
-0.5
 49
0.0
 49
-0.5
  0
LTYPE
  2
CENTER2
 70
     0
  3
___ _ ___ _ ___ _ ___ _ ___ _ ___ _ ___ _ ___ _
 72
    65
 73
     4
 40
1.125
 49
0.75
 49
-0.125
 49
0.125
 49
-0.125
  0
LTYPE
  2
CENTERX2
 70
     0
  3
________  __  ________  __  ________  __  _____
 72
    65
 73
     4
 40
4.0
 49
2.5
 49
-0.5
 49
0.5
 49
-0.5
  0
LTYPE
  2
DASHDOT
 70
     0
  3
__ . __ . __ . __ . __ . __ . __ . __ . __ . __
 72
    65
 73
     4
 40
1.0
 49
0.5
 49
-0.25
 49
0.0
 49
-0.25
  0
LTYPE
  2
DASHDOT2
 70
     0
  3
_._._._._._._._._._._._._._._._._._._._._._._._
 72
    65
 73
     4
 40
0.5
 49
0.25
 49
-0.125
 49
0.0
 49
-0.125
  0
LTYPE
  2
DASHDOTX2
 70
     0
  3
____  .  ____  .  ____  .  ____  .  ____  .  __
 72
    65
 73
     4
 40
2.0
 49
1.0
 49
-0.5
 49
0.0
 49
-0.5
  0
LTYPE
  2
DASHED
 70
     0
  3
__ __ __ __ __ __ __ __ __ __ __ __ __ __ __ __
 72
    65
 73
     2
 40
0.75
 49
0.5
 49
-0.25
  0
LTYPE
  2
DASHED2
 70
     0
  3
_ _ _ _ _ _ _ _ _ _ _ _ _ _ _ _ _ _ _ _ _ _ _ _
 72
    65
 73
     2
 40
0.375
 49
0.25
 49
-0.125
  0
LTYPE
  2
DASHEDX2
 70
     0
  3
____  ____  ____  ____  ____  ____  ____  ____ 
 72
    65
 73
     2
 40
1.5
 49
1.0
 49
-0.5
  0
LTYPE
  2
DIVIDE
 70
     0
  3
____ . . ____ . . ____ . . ____ . . ____ . . __
 72
    65
 73
     6
 40
1.25
 49
0.5
 49
-0.25
 49
0.0
 49
-0.25
 49
0.0
 49
-0.25
  0
LTYPE
  2
DIVIDE2
 70
     0
  3
__..__..__..__..__..__..__..__..__..__..__..__.
 72
    65
 73
     6
 40
0.625
 49
0.25
 49
-0.125
 49
0.0
 49
-0.125
 49
0.0
 49
-0.125
  0
LTYPE
  2
DIVIDEX2
 70
     0
  3
________  .  .  ________  .  .  ________  .  . 
 72
    65
 73
     6
 40
2.5
 49
1.0
 49
-0.5
 49
0.0
 49
-0.5
 49
0.0
 49
-0.5
  0
LTYPE
  2
DOT
 70
     0
  3
. . . . . . . . . . . . . . . . . . . . . . . .
 72
    65
 73
     2
 40
0.25
 49
0.0
 49
-0.25
  0
LTYPE
  2
DOT2
 70
     0
  3
...............................................
 72
    65
 73
     2
 40
0.125
 49
0.0
 49
-0.125
  0
LTYPE
  2
DOTX2
 70
     0
  3
.  .  .  .  .  .  .  .  .  .  .  .  .  .  .  . 
 72
    65
 73
     2
 40
0.5
 49
0.0
 49
-0.5
  0
LTYPE
  2
HIDDEN
 70
     0
  3
__ __ __ __ __ __ __ __ __ __ __ __ __ __ __ __
 72
    65
 73
     2
 40
0.375
 49
0.25
 49
-0.125
  0
LTYPE
  2
HIDDENX2
 70
     0
  3
____ ____ ____ ____ ____ ____ ____ ____ ____ __
 72
    65
 73
     2
 40
0.75
 49
0.5
 49
-0.25
  0
LTYPE
  2
PHANTOM
 70
     0
  3
______  __  __  ______  __  __  ______  __  __ 
 72
    65
 73
     6
 40
2.5
 49
1.25
 49
-0.25
 49
0.25
 49
-0.25
 49
0.25
 49
-0.25
  0
LTYPE
  2
PHANTOMX2
 70
     0
  3
____________    ____    ____    ____________   
 72
    65
 73
     6
 40
5.0
 49
2.5
 49
-0.5
 49
0.5
 49
-0.5
 49
0.5
 49
-0.5
  0
LTYPE
  2
MOHAWK$0$BORDER
 70
     0
  3
__ __ . __ __ . __ __ . __ __ . __ __ . __ __ .
 72
    65
 73
     6
 40
1.75
 49
0.5
 49
-0.25
 49
0.5
 49
-0.25
 49
0.0
 49
-0.25
  0
LTYPE
  2
MOHAWK$0$BORDER2
 70
     0
  3
__.__.__.__.__.__.__.__.__.__.__.__.__.__.__.__
 72
    65
 73
     6
 40
0.875
 49
0.25
 49
-0.125
 49
0.25
 49
-0.125
 49
0.0
 49
-0.125
  0
LTYPE
  2
MOHAWK$0$BORDERX2
 70
     0
  3
____  ____  .  ____  ____  .  ____  ____  .  __
 72
    65
 73
     6
 40
3.5
 49
1.0
 49
-0.5
 49
1.0
 49
-0.5
 49
0.0
 49
-0.5
  0
LTYPE
  2
MOHAWK$0$CENTER
 70
     0
  3
____ _ ____ _ ____ _ ____ _ ____ _ ____ _ ____ 
 72
    65
 73
     4
 40
2.0
 49
1.25
 49
-0.25
 49
0.25
 49
-0.25
  0
LTYPE
  2
MOHAWK$0$CENTER2
 70
     0
  3
___ _ ___ _ ___ _ ___ _ ___ _ ___ _ ___ _ ___ _
 72
    65
 73
     4
 40
1.125
 49
0.75
 49
-0.125
 49
0.125
 49
-0.125
  0
LTYPE
  2
MOHAWK$0$CENTERX2
 70
     0
  3
________  __  ________  __  ________  __  _____
 72
    65
 73
     4
 40
4.0
 49
2.5
 49
-0.5
 49
0.5
 49
-0.5
  0
LTYPE
  2
MOHAWK$0$DASHDOT
 70
     0
  3
__ . __ . __ . __ . __ . __ . __ . __ . __ . __
 72
    65
 73
     4
 40
1.0
 49
0.5
 49
-0.25
 49
0.0
 49
-0.25
  0
LTYPE
  2
MOHAWK$0$DASHDOT2
 70
     0
  3
_._._._._._._._._._._._._._._._._._._._._._._._
 72
    65
 73
     4
 40
0.5
 49
0.25
 49
-0.125
 49
0.0
 49
-0.125
  0
LTYPE
  2
MOHAWK$0$DASHDOTX2
 70
     0
  3
____  .  ____  .  ____  .  ____  .  ____  .  __
 72
    65
 73
     4
 40
2.0
 49
1.0
 49
-0.5
 49
0.0
 49
-0.5
  0
LTYPE
  2
MOHAWK$0$DASHED
 70
     0
  3
__ __ __ __ __ __ __ __ __ __ __ __ __ __ __ __
 72
    65
 73
     2
 40
0.75
 49
0.5
 49
-0.25
  0
LTYPE
  2
MOHAWK$0$DASHED2
 70
     0
  3
_ _ _ _ _ _ _ _ _ _ _ _ _ _ _ _ _ _ _ _ _ _ _ _
 72
    65
 73
     2
 40
0.375
 49
0.25
 49
-0.125
  0
LTYPE
  2
MOHAWK$0$DASHEDX2
 70
     0
  3
____  ____  ____  ____  ____  ____  ____  ____ 
 72
    65
 73
     2
 40
1.5
 49
1.0
 49
-0.5
  0
LTYPE
  2
MOHAWK$0$DIVIDE
 70
     0
  3
____ . . ____ . . ____ . . ____ . . ____ . . __
 72
    65
 73
     6
 40
1.25
 49
0.5
 49
-0.25
 49
0.0
 49
-0.25
 49
0.0
 49
-0.25
  0
LTYPE
  2
MOHAWK$0$DIVIDE2
 70
     0
  3
__..__..__..__..__..__..__..__..__..__..__..__.
 72
    65
 73
     6
 40
0.625
 49
0.25
 49
-0.125
 49
0.0
 49
-0.125
 49
0.0
 49
-0.125
  0
LTYPE
  2
MOHAWK$0$DIVIDEX2
 70
     0
  3
________  .  .  ________  .  .  ________  .  . 
 72
    65
 73
     6
 40
2.5
 49
1.0
 49
-0.5
 49
0.0
 49
-0.5
 49
0.0
 49
-0.5
  0
LTYPE
  2
MOHAWK$0$DOT
 70
     0
  3
. . . . . . . . . . . . . . . . . . . . . . . .
 72
    65
 73
     2
 40
0.25
 49
0.0
 49
-0.25
  0
LTYPE
  2
MOHAWK$0$DOT2
 70
     0
  3
...............................................
 72
    65
 73
     2
 40
0.125
 49
0.0
 49
-0.125
  0
LTYPE
  2
MOHAWK$0$DOTX2
 70
     0
  3
.  .  .  .  .  .  .  .  .  .  .  .  .  .  .  . 
 72
    65
 73
     2
 40
0.5
 49
0.0
 49
-0.5
  0
LTYPE
  2
MOHAWK$0$HIDDEN
 70
     0
  3
__ __ __ __ __ __ __ __ __ __ __ __ __ __ __ __
 72
    65
 73
     2
 40
0.375
 49
0.25
 49
-0.125
  0
LTYPE
  2
MOHAWK$0$HIDDEN2
 70
     0
  3
_ _ _ _ _ _ _ _ _ _ _ _ _ _ _ _ _ _ _ _ _ _ _ _
 72
    65
 73
     2
 40
0.1875
 49
0.125
 49
-0.0625
  0
LTYPE
  2
MOHAWK$0$HIDDENX2
 70
     0
  3
____ ____ ____ ____ ____ ____ ____ ____ ____ __
 72
    65
 73
     2
 40
0.75
 49
0.5
 49
-0.25
  0
LTYPE
  2
MOHAWK$0$PHANTOM
 70
     0
  3
______  __  __  ______  __  __  ______  __  __ 
 72
    65
 73
     6
 40
2.5
 49
1.25
 49
-0.25
 49
0.25
 49
-0.25
 49
0.25
 49
-0.25
  0
LTYPE
  2
MOHAWK$0$PHANTOM2
 70
     0
  3
___ _ _ ___ _ _ ___ _ _ ___ _ _ ___ _ _ ___ _ _
 72
    65
 73
     6
 40
1.25
 49
0.625
 49
-0.125
 49
0.125
 49
-0.125
 49
0.125
 49
-0.125
  0
LTYPE
  2
MOHAWK$0$PHANTOMX2
 70
     0
  3
____________    ____    ____    ____________   
 72
    65
 73
     6
 40
5.0
 49
2.5
 49
-0.5
 49
0.5
 49
-0.5
 49
0.5
 49
-0.5
  0
ENDTAB
  0
TABLE
  2
LAYER
 70
    10
  0
LAYER
  2
0
 70
     0
 62
     7
  6
CONTINUOUS
  0
LAYER
  2
A1-BORDER-LABELS
 70
     0
 62
     6
  6
CONTINUOUS
  0
LAYER
  2
A1-DIMENSIONS
 70
     0
 62
     1
  6
CONTINUOUS
  0
LAYER
  2
A-LINE-CENTER
 70
     0
 62
     5
  6
CENTER
  0
LAYER
  2
A-LINE-HIDDEN
 70
     0
 62
     3
  6
HIDDEN
  0
LAYER
  2
A1-NOTES
 70
     0
 62
     4
  6
CONTINUOUS
  0
LAYER
  2
A-LINE-OBJECT
 70
     0
 62
     7
  6
CONTINUOUS
  0
LAYER
  2
REV-A
 70
     0
 62
     6
  6
CONTINUOUS
  0
LAYER
  2
DS$0$ASHADE
 70
     0
 62
     7
  6
CONTINUOUS
  0
ENDTAB
  0
TABLE
  2
STYLE
 70
    13
  0
STYLE
  2
STANDARD
 70
     0
 40
0.0
 41
1.0
 50
0.0
 71
     0
 42
0.2
  3
txt
  4

  0
STYLE
  2
LEROY
 70
     0
 40
0.125
 41
1.0
 50
15.0
 71
     0
 42
0.125
  3
ROMAND
  4

  0
STYLE
  2
DS$0$STANDARD
 70
     0
 40
0.0
 41
1.0
 50
0.0
 71
     0
 42
0.125
  3
ROMANT
  4

  0
STYLE
  2
DS$0$ASHADE
 70
     0
 40
0.2
 41
1.0
 50
0.0
 71
     0
 42
0.125
  3
simplex
  4

  0
STYLE
  2
MOHAWK$0$STANDARD
 70
     0
 40
0.09375
 41
1.0
 50
0.0
 71
     0
 42
0.09375
  3
ROMANT
  4

  0
STYLE
  2
MOHAWK$0$LEROY
 70
     0
 40
0.125
 41
1.0
 50
15.0
 71
     0
 42
0.125
  3
ROMAND
  4

  0
STYLE
  2
MOHAWK$0$MOHAWK
 70
     0
 40
0.25
 41
1.0
 50
0.0
 71
     0
 42
0.25
  3
ROMANT
  4

  0
STYLE
  2
MOHAWK$0$STANDARD2
 70
     0
 40
0.25
 41
0.8
 50
0.0
 71
     0
 42
0.25
  3
SASB____.PFB
  4

  0
STYLE
  2
CONF$0$STANDARD
 70
     0
 40
0.0
 41
1.0
 50
0.0
 71
     0
 42
0.2
  3
txt
  4

  0
STYLE
  2
CONF$0$LEROY
 70
     0
 40
0.125
 41
1.0
 50
15.0
 71
     0
 42
0.125
  3
ROMAND
  4

  0
STYLE
  2
CONF$0$LEROY2
 70
     0
 40
0.011
 41
1.0
 50
0.0
 71
     0
 42
0.0625
  3
ROMAND
  4

  0
STYLE
  2
REV$0$STANDARD
 70
     0
 40
0.09375
 41
1.0
 50
0.0
 71
     0
 42
0.09375
  3
ROMANT
  4

  0
STYLE
  2
LABEL
 70
     0
 40
0.25
 41
1.0
 50
0.0
 71
     0
 42
0.25
  3
txt
  4

  0
ENDTAB
  0
TABLE
  2
VIEW
 70
     0
  0
ENDTAB
  0
TABLE
  2
UCS
 70
     0
  0
ENDTAB
  0
TABLE
  2
APPID
 70
     3
  0
APPID
  2
ACAD
 70
     0
  0
APPID
  2
AVE_RENDER
 70
    32
  0
APPID
  2
AVE_FINISH
 70
    32
  0
ENDTAB
  0
TABLE
  2
DIMSTYLE
 70
     5
  0
DIMSTYLE
  2
STANDARD
 70
     0
  3

  4

  5

  6

  7

 40
1.0
 41
0.18
 42
0.0625
 43
0.38
 44
0.18
 45
0.0
 46
0.0
 47
0.0
 48
0.0
140
0.18
141
0.09
142
0.0
143
25.399999999999999
144
1.0
145
0.0
146
1.0
147
0.09
 71
     0
 72
     0
 73
     1
 74
     1
 75
     0
 76
     0
 77
     0
 78
     0
170
     0
171
     2
172
     0
173
     0
174
     0
175
     0
176
     0
177
     0
178
     0
  0
DIMSTYLE
  2
DS$0$STANDARD
 70
     0
  3

  4

  5

  6

  7

 40
1.0
 41
0.18
 42
0.0625
 43
0.38
 44
0.18
 45
0.0
 46
0.0
 47
0.0
 48
0.0
140
0.18
141
0.09
142
0.0
143
25.399999999999999
144
1.0
145
0.0
146
1.0
147
0.09
 71
     0
 72
     0
 73
     1
 74
     1
 75
     0
 76
     0
 77
     0
 78
     0
170
     0
171
     2
172
     0
173
     0
174
     0
175
     0
176
     0
177
     0
178
     0
  0
DIMSTYLE
  2
MOHAWK$0$STANDARD
 70
     0
  3

  4

  5

  6

  7

 40
1.0
 41
0.18
 42
0.0625
 43
0.38
 44
0.18
 45
0.0
 46
0.0
 47
0.0
 48
0.0
140
0.18
141
0.09
142
0.0
143
25.399999999999999
144
1.0
145
0.0
146
1.0
147
0.09
 71
     0
 72
     0
 73
     1
 74
     1
 75
     0
 76
     0
 77
     0
 78
     0
170
     0
171
     2
172
     0
173
     0
174
     0
175
     0
176
     0
177
     0
178
     0
  0
DIMSTYLE
  2
CONF$0$STANDARD
 70
     0
  3

  4

  5

  6

  7

 40
1.0
 41
0.18
 42
0.0625
 43
0.38
 44
0.18
 45
0.0
 46
0.0
 47
0.0
 48
0.0
140
0.18
141
0.09
142
0.0
143
25.399999999999999
144
1.0
145
0.0
146
1.0
147
0.09
 71
     0
 72
     0
 73
     1
 74
     1
 75
     0
 76
     0
 77
     0
 78
     0
170
     0
171
     2
172
     0
173
     0
174
     0
175
     0
176
     0
177
     0
178
     0
  0
DIMSTYLE
  2
REV$0$STANDARD
 70
     0
  3

  4

  5

  6

  7

 40
1.0
 41
0.18
 42
0.0625
 43
0.38
 44
0.18
 45
0.0
 46
0.0
 47
0.0
 48
0.0
140
0.18
141
0.09
142
0.0
143
25.399999999999999
144
1.0
145
0.0
146
1.0
147
0.09
 71
     0
 72
     0
 73
     1
 74
     1
 75
     0
 76
     0
 77
     0
 78
     0
170
     0
171
     2
172
     0
173
     0
174
     0
175
     0
176
     0
177
     0
178
     0
  0
ENDTAB
  0
ENDSEC
  0
SECTION
  2
BLOCKS
  0
BLOCK
  8
0
  2
$MODEL_SPACE
 70
     0
 10
0.0
 20
0.0
 30
0.0
  3
$MODEL_SPACE
  1

  0
ENDBLK
  5
297
  8
0
  0
BLOCK
 67
     1
  8
0
  2
$PAPER_SPACE
 70
     0
 10
0.0
 20
0.0
 30
0.0
  3
$PAPER_SPACE
  1

  0
ENDBLK
  5
295
 67
     1
  8
0
  0
BLOCK
  8
0
  2
LAYERS
 70
     0
 10
0.0
 20
0.0
 30
0.0
  3
LAYERS
  1

  0
ENDBLK
  5
6F
  8
0
  0
BLOCK
  8
0
 62
     7
  2
DS
 70
     0
 10
0.0
 20
0.0
 30
0.0
  3
DS
  1
DS
  0
POLYLINE
  5
30C
  8
0
 66
     1
 10
0.0
 20
0.0
 30
0.0
 40
0.0625
 41
0.0625
  0
VERTEX
  5
30D
  8
0
 10
0.5
 20
0.5
 30
0.0
  0
VERTEX
  5
30E
  8
0
 10
33.5
 20
0.5
 30
0.0
  0
VERTEX
  5
30F
  8
0
 10
33.5
 20
21.499999999999989
 30
0.0
  0
VERTEX
  5
310
  8
0
 10
0.5
 20
21.499999999999989
 30
0.0
  0
VERTEX
  5
311
  8
0
 10
0.5
 20
0.5
 30
0.0
  0
SEQEND
  5
312
  8
0
  0
LINE
  5
313
  8
0
 10
0.0
 20
0.5
 30
0.0
 11
0.0
 21
0.0
 31
0.0
  0
LINE
  5
314
  8
0
 10
0.0
 20
0.0
 30
0.0
 11
0.5
 21
0.0
 31
0.0
  0
LINE
  5
315
  8
0
 10
33.5
 20
0.0
 30
0.0
 11
34.0
 21
0.0
 31
0.0
  0
LINE
  5
316
  8
0
 10
34.0
 20
0.0
 30
0.0
 11
34.0
 21
0.5
 31
0.0
  0
LINE
  5
317
  8
0
 10
33.5
 20
22.0
 30
0.0
 11
34.0
 21
22.0
 31
0.0
  0
LINE
  5
318
  8
0
 10
34.0
 20
22.0
 30
0.0
 11
34.0
 21
21.499999999999989
 31
0.0
  0
LINE
  5
319
  8
0
 10
0.5
 20
22.0
 30
0.0
 11
0.0
 21
22.0
 31
0.0
  0
LINE
  5
31A
  8
0
 10
0.0
 20
22.0
 30
0.0
 11
0.0
 21
21.499999999999989
 31
0.0
  0
INSERT
  5
31B
  8
0
  2
MOHAWK
 10
33.5
 20
0.5
 30
0.0
  0
INSERT
  5
31C
  8
0
  2
CONF
 10
13.0
 20
1.0
 30
0.0
  0
INSERT
  5
31D
  8
0
  2
REV
 10
33.5
 20
21.499999999999989
 30
0.0
  0
TEXT
  5
31E
  8
0
 10
0.625
 20
0.625
 30
0.0
 40
0.25
  1
D
  7
DS$0$STANDARD
  0
TEXT
  5
320
  8
0
 10
0.875
 20
0.625
 30
0.0
 40
0.125
  1
-SIZE
  7
DS$0$STANDARD
  0
INSERT
  5
321
  8
DS$0$ASHADE
 62
     1
  2
DS$0$AVE_RENDER
 10
0.0
 20
0.0
 30
0.0
1001
AVE_RENDER
1002
{
1070
     2
1000
Pref
1070
    30
1070
    20
1070
     0
1070
     0
1000

1070
    10
1070
     0
1070
    30
1040
1.0
1070
     1
1040
0.3
1040
0.7
1040
0.0
1040
10.0
1010
-1.0
1020
-1.0
1030
-1.0
1040
0.3
1070
    49
1002
}
  0
INSERT
  5
325
  8
DS$0$ASHADE
 62
     3
  2
DS$0$AVE_RENDER
 10
0.0
 20
0.0
 30
0.0
1001
AVE_RENDER
1002
{
1070
     0
1000
Full Opt
1070
     0
1070
     1
1070
     1
1070
     1
1070
     0
1070
     0
1070
     0
1070
     1
1070
     1
1040
0.0001
1040
0.0001
1002
}
  0
INSERT
  5
326
  8
DS$0$ASHADE
 62
     4
  2
DS$0$AVE_RENDER
 10
0.0
 20
0.0
 30
0.0
1001
AVE_RENDER
1002
{
1070
     0
1000
Quick Opt
1070
     0
1070
     1
1070
     1
1070
     1
1070
     0
1070
     0
1070
     1
1002
}
  0
ENDBLK
  5
2A4
  8
0
 62
     7
  0
BLOCK
  8
0
  2
DTITLE
 70
     2
 10
0.0
 20
0.0
 30
0.0
  3
DTITLE
  1

  0
ATTDEF
  5
74
  8
A1-BORDER-LABELS
 10
-3.875
 20
0.625
 30
0.0
 40
0.125
  1

 51
15.0
  7
LEROY
  3
DRAWING TITLE
  2
DRAW-TITLE
 70
     4
  0
ATTDEF
  5
75
  8
A1-BORDER-LABELS
 10
-0.3125
 20
0.125
 30
0.0
 40
0.125
  1

 51
15.0
  7
LEROY
  3
REVISION
  2
R
 70
     4
  0
ATTDEF
  5
76
  8
A1-BORDER-LABELS
 10
-2.125
 20
0.125
 30
0.0
 40
0.125
  1
XXX-XXX-XXX
 51
15.0
  7
LEROY
  3
DRAWING NUMBER
  2
DRAW-NO.
 70
     4
  0
ATTDEF
  5
77
  8
A1-BORDER-LABELS
 10
-3.875
 20
0.125
 30
0.0
 40
0.125
  1

 51
15.0
  7
LEROY
  3
DRAWING FROM
  2
FROM
 70
     4
  0
ATTDEF
  5
78
  8
A1-BORDER-LABELS
 10
-11.625
 20
0.125
 30
0.0
 40
0.125
  1

 51
15.0
  7
LEROY
  3
FILE NAME
  2
FILE-NAME
 70
     4
  0
ATTDEF
  5
79
  8
A1-BORDER-LABELS
 10
-6.25
 20
1.125
 30
0.0
 40
0.125
  1
1=1
 51
15.0
  7
LEROY
  3
SCALE
  2
SCALE
 70
     4
  0
ATTDEF
  5
7A
  8
A1-BORDER-LABELS
 10
-5.125
 20
0.125
 30
0.0
 40
0.125
  1

 51
15.0
  7
LEROY
  3
WEIGHT
  2
WEIGHT
 70
     4
  0
ATTDEF
  5
7B
  8
A1-BORDER-LABELS
 10
-6.25
 20
0.125
 30
0.0
 40
0.125
  1

 51
15.0
  7
LEROY
  3
DATE
  2
DATE
 70
     4
  0
ATTDEF
  5
7C
  8
A1-BORDER-LABELS
 10
-5.125
 20
1.125
 30
0.0
 40
0.125
  1

 51
15.0
  7
LEROY
  3
DRAWN BY
  2
DRAWN
 70
     4
  0
ENDBLK
  5
7D
  8
0
  0
BLOCK
  8
0
  2
NASSY
 70
     2
 10
0.0
 20
0.0
 30
0.0
  3
NASSY
  1

  0
ATTDEF
  5
7F
  8
A1-BORDER-LABELS
 10
-9.75
 20
0.5
 30
0.0
 40
0.125
  1
XXX-XXX-XXX
 51
15.0
  7
LEROY
  3
NEXT ASSEMBLY
  2
NEXT-ASSEMBLY
 70
     4
  0
ATTDEF
  5
80
  8
A1-BORDER-LABELS
 10
-8.0
 20
0.5
 30
0.0
 40
0.125
  1

 51
15.0
  7
LEROY
  3
NEXT ASSEMBLY
  2
NEXT-ASSEMBLY
 70
     4
  0
ATTDEF
  5
81
  8
A1-BORDER-LABELS
 10
-9.75
 20
0.875
 30
0.0
 40
0.125
  1

 51
15.0
  7
LEROY
  3
NEXT ASSEMBLY
  2
NEXT-ASSEMBLY
 70
     4
  0
ATTDEF
  5
82
  8
A1-BORDER-LABELS
 10
-8.0
 20
0.875
 30
0.0
 40
0.125
  1

 51
15.0
  7
LEROY
  3
NEXT ASSEMBLY
  2
NEXT-ASSEMBLY
 70
     4
  0
ATTDEF
  5
83
  8
A1-BORDER-LABELS
 10
-9.75
 20
1.25
 30
0.0
 40
0.125
  1

 51
15.0
  7
LEROY
  3
NEXT ASSEMBLY
  2
NEXT-ASSEMBLY
 70
     4
  0
ATTDEF
  5
84
  8
A1-BORDER-LABELS
 10
-8.0
 20
1.25
 30
0.0
 40
0.125
  1

 51
15.0
  7
LEROY
  3
NEXT ASSEMBLY
  2
NEXT-ASSEMBLY
 70
     4
  0
ENDBLK
  5
85
  8
0
  0
BLOCK
  8
0
  2
LAYERS2
 70
     0
 10
0.0
 20
0.0
 30
0.0
  3
LAYERS2
  1

  0
ENDBLK
  5
87
  8
0
  0
BLOCK
  8
0
  2
MOHAWK
 70
     0
 10
17.0
 20
3.0
 30
0.0
  3
MOHAWK
  1
MOHAWK
  0
POLYLINE
  5
32C
  8
0
 66
     1
 10
0.0
 20
0.0
 30
0.0
 40
0.03125
 41
0.03125
  0
VERTEX
  5
32D
  8
0
 10
17.0
 20
3.0
 30
0.0
  0
VERTEX
  5
32E
  8
0
 10
17.0
 20
4.5
 30
0.0
  0
SEQEND
  5
32F
  8
0
  0
TEXT
  5
330
  8
0
 10
1.125
 20
4.3125
 30
0.0
 40
0.09375
  1
NOTES:
  7
MOHAWK$0$STANDARD
  0
TEXT
  5
332
  8
0
 10
1.5
 20
3.1875
 30
0.0
 40
0.09375
  1
E-70TI CODE 5.3 FLUX CORE WIRE ONLY.
  7
MOHAWK$0$STANDARD
  0
TEXT
  5
333
  8
0
 10
1.5
 20
3.375
 30
0.0
 40
0.09375
  1
SPECIFICATIONS TO E-70XX ELECTRODES OR
  7
MOHAWK$0$STANDARD
  0
TEXT
  5
334
  8
0
 10
1.25
 20
3.5625
 30
0.0
 40
0.09375
  1
3. WELDING MEDIUM SHALL CONFORM TO AWS
  7
MOHAWK$0$STANDARD
  0
TEXT
  5
335
  8
0
 10
12.75
 20
3.125
 30
0.0
 40
0.09375
  1
LB.
  7
MOHAWK$0$STANDARD
  0
TEXT
  5
336
  8
0
 10
1.25
 20
4.125
 30
0.0
 40
0.09375
  1
1. REMOVE ALL SHARP CORNERS & EDGES.
  7
MOHAWK$0$STANDARD
  0
POLYLINE
  5
337
  8
0
 66
     1
 10
0.0
 20
0.0
 30
0.0
 40
0.03125
 41
0.03125
  0
VERTEX
  5
338
  8
0
 10
5.1875
 20
4.5
 30
0.0
  0
VERTEX
  5
339
  8
0
 10
5.1875
 20
3.0
 30
0.0
  0
SEQEND
  5
33A
  8
0
  0
POLYLINE
  5
33B
  8
0
 66
     1
 10
0.0
 20
0.0
 30
0.0
 40
0.03125
 41
0.03125
  0
VERTEX
  5
33C
  8
0
 10
1.0
 20
3.0
 30
0.0
  0
VERTEX
  5
33D
  8
0
 10
1.0
 20
4.5
 30
0.0
  0
SEQEND
  5
33E
  8
0
  0
TEXT
  5
33F
  8
0
 10
6.4375
 20
3.625
 30
0.0
 40
0.09375
  1
%%P .005
  7
MOHAWK$0$STANDARD
  0
TEXT
  5
340
  8
0
 10
6.4375
 20
3.75
 30
0.0
 40
0.09375
  1
%%P .030
  7
MOHAWK$0$STANDARD
  0
TEXT
  5
341
  8
0
 10
6.4375
 20
4.0
 30
0.0
 40
0.09375
  1
%%P .030
  7
MOHAWK$0$STANDARD
  0
TEXT
  5
342
  8
0
 10
5.5
 20
3.625
 30
0.0
 40
0.09375
  1
0.XXX
  7
MOHAWK$0$STANDARD
  0
TEXT
  5
343
  8
0
 10
5.5
 20
3.75
 30
0.0
 40
0.09375
  1
0.XX
  7
MOHAWK$0$STANDARD
  0
TEXT
  5
344
  8
0
 10
5.375
 20
3.875
 30
0.0
 40
0.09375
  1
DECIMAL:
  7
MOHAWK$0$STANDARD
  0
TEXT
  5
345
  8
0
 10
5.375
 20
4.0
 30
0.0
 40
0.09375
  1
FRACTIONAL
  7
MOHAWK$0$STANDARD
  0
TEXT
  5
346
  8
0
 10
5.375
 20
4.125
 30
0.0
 40
0.09375
  1
ANGULAR
  7
MOHAWK$0$STANDARD
  0
TEXT
  5
347
  8
0
 10
5.375
 20
4.3125
 30
0.0
 40
0.09375
  1
TOLERANCES:
  7
MOHAWK$0$STANDARD
  0
POLYLINE
  5
348
  8
0
 66
     1
 10
0.0
 20
0.0
 30
0.0
 40
0.03125
 41
0.03125
  0
VERTEX
  5
349
  8
0
 10
8.875
 20
3.375
 30
0.0
  0
VERTEX
  5
34A
  8
0
 10
8.875
 20
4.5
 30
0.0
  0
SEQEND
  5
34B
  8
0
  0
POLYLINE
  5
34C
  8
0
 66
     1
 10
0.0
 20
0.0
 30
0.0
 40
0.03125
 41
0.03125
  0
VERTEX
  5
34D
  8
0
 10
7.125
 20
3.375
 30
0.0
  0
VERTEX
  5
34E
  8
0
 10
10.625
 20
3.375
 30
0.0
  0
SEQEND
  5
34F
  8
0
  0
LINE
  5
350
  8
0
 10
10.625
 20
4.125
 30
0.0
 11
7.125
 21
4.125
 31
0.0
  0
LINE
  5
351
  8
0
 10
7.125
 20
3.75
 30
0.0
 11
10.625
 21
3.75
 31
0.0
  0
LINE
  5
352
  8
0
 10
8.875
 20
3.5
 30
0.0
 11
8.875
 21
3.375
 31
0.0
  0
LINE
  5
353
  8
0
 10
7.125
 20
3.375
 30
0.0
 11
10.625
 21
3.375
 31
0.0
  0
TEXT
  5
354
  8
0
 10
8.2589285714285712
 20
3.125
 30
0.0
 40
0.09375
  1
NEXT ASSEMBLY
  7
MOHAWK$0$STANDARD
 72
     1
 11
8.875
 21
3.125
 31
0.0
  0
LINE
  5
355
  8
0
 10
8.875
 20
3.5
 30
0.0
 11
8.875
 21
4.5
 31
0.0
  0
POLYLINE
  5
356
  8
0
 66
     1
 10
0.0
 20
0.0
 30
0.0
 40
0.03125
 41
0.03125
  0
VERTEX
  5
357
  8
0
 10
17.0
 20
3.5
 30
0.0
  0
VERTEX
  5
358
  8
0
 10
10.625
 20
3.5
 30
0.0
  0
SEQEND
  5
359
  8
0
  0
POLYLINE
  5
35A
  8
0
 66
     1
 10
0.0
 20
0.0
 30
0.0
 40
0.03125
 41
0.03125
  0
VERTEX
  5
35B
  8
0
 10
17.0
 20
4.0
 30
0.0
  0
VERTEX
  5
35C
  8
0
 10
10.625
 20
4.0
 30
0.0
  0
SEQEND
  5
35D
  8
0
  0
POLYLINE
  5
35E
  8
0
 66
     1
 10
0.0
 20
0.0
 30
0.0
 40
0.03125
 41
0.03125
  0
VERTEX
  5
35F
  8
0
 10
7.125
 20
3.0
 30
0.0
  0
VERTEX
  5
360
  8
0
 10
7.125
 20
4.5
 30
0.0
  0
SEQEND
  5
361
  8
0
  0
POLYLINE
  5
362
  8
0
 66
     1
 10
0.0
 20
0.0
 30
0.0
 40
0.03125
 41
0.03125
  0
VERTEX
  5
363
  8
0
 10
16.57129570693872
 20
3.0818393075563479
 30
0.0
  0
VERTEX
  5
364
  8
0
 10
16.75879570693872
 20
3.3943393075563479
 30
0.0
  0
VERTEX
  5
365
  8
0
 10
16.94629570693872
 20
3.0818393075563479
 30
0.0
  0
VERTEX
  5
366
  8
0
 10
16.57129570693872
 20
3.0818393075563479
 30
0.0
  0
VERTEX
  5
367
  8
0
 10
16.75879570693872
 20
3.3943393075563479
 30
0.0
  0
SEQEND
  5
368
  8
0
  0
TEXT
  5
369
  8
0
 10
11.875
 20
3.3125
 30
0.0
 40
0.09375
  1
WEIGHT
  7
MOHAWK$0$STANDARD
  0
TEXT
  5
36A
  8
0
 10
10.749999999999989
 20
3.3125
 30
0.0
 40
0.09375
  1
DATE
  7
MOHAWK$0$STANDARD
  0
TEXT
  5
36B
  8
0
 10
11.875
 20
3.8125
 30
0.0
 40
0.09375
  1
APPROVED
  7
MOHAWK$0$STANDARD
  0
TEXT
  5
36C
  8
0
 10
10.749999999999989
 20
3.8125
 30
0.0
 40
0.09375
  1
CHECKED
  7
MOHAWK$0$STANDARD
  0
TEXT
  5
36D
  8
0
 10
10.749999999999989
 20
4.3125
 30
0.0
 40
0.09375
  1
SCALE
  7
MOHAWK$0$STANDARD
  0
TEXT
  5
36E
  8
0
 10
11.875
 20
4.3125
 30
0.0
 40
0.09375
  1
DRAWN
  7
MOHAWK$0$STANDARD
  0
POLYLINE
  5
36F
  8
0
 66
     1
 10
0.0
 20
0.0
 30
0.0
 40
0.03125
 41
0.03125
  0
VERTEX
  5
370
  8
0
 10
10.625
 20
3.0
 30
0.0
  0
VERTEX
  5
371
  8
0
 10
10.625
 20
4.5
 30
0.0
  0
SEQEND
  5
372
  8
0
  0
POLYLINE
  5
373
  8
0
 66
     1
 10
0.0
 20
0.0
 30
0.0
 40
0.03125
 41
0.03125
  0
VERTEX
  5
374
  8
0
 10
11.75
 20
3.0
 30
0.0
  0
VERTEX
  5
375
  8
0
 10
11.75
 20
4.5
 30
0.0
  0
SEQEND
  5
376
  8
0
  0
TEXT
  5
377
  8
0
 10
13.125
 20
3.8125
 30
0.0
 40
0.09375
  1
TITLE
  7
MOHAWK$0$STANDARD
  0
POLYLINE
  5
378
  8
0
 66
     1
 10
0.0
 20
0.0
 30
0.0
 40
0.03125
 41
0.03125
  0
VERTEX
  5
379
  8
0
 10
13.0
 20
3.0
 30
0.0
  0
VERTEX
  5
37A
  8
0
 10
13.0
 20
4.5
 30
0.0
  0
SEQEND
  5
37B
  8
0
  0
TEXT
  5
37C
  8
0
 10
14.875
 20
3.3125
 30
0.0
 40
0.09375
  1
DRAWING NUMBER
  7
MOHAWK$0$STANDARD
  0
TEXT
  5
37D
  8
0
 10
13.125
 20
3.3125
 30
0.0
 40
0.09375
  1
FROM
  7
MOHAWK$0$STANDARD
  0
POLYLINE
  5
37E
  8
0
 66
     1
 10
0.0
 20
0.0
 30
0.0
 40
0.03125
 41
0.03125
  0
VERTEX
  5
37F
  8
0
 10
14.75
 20
3.0
 30
0.0
  0
VERTEX
  5
380
  8
0
 10
14.75
 20
3.5
 30
0.0
  0
SEQEND
  5
381
  8
0
  0
POLYLINE
  5
382
  8
0
 66
     1
 10
0.0
 20
0.0
 30
0.0
 40
0.03125
 41
0.03125
  0
VERTEX
  5
383
  8
0
 10
16.5
 20
3.0
 30
0.0
  0
VERTEX
  5
384
  8
0
 10
16.5
 20
3.5
 30
0.0
  0
SEQEND
  5
385
  8
0
  0
TEXT
  5
386
  8
0
 10
5.25
 20
3.3125
 30
0.0
 40
0.09375
  1
FILE NAME
  7
MOHAWK$0$STANDARD
  0
POLYLINE
  5
387
  8
0
 66
     1
 10
0.0
 20
0.0
 30
0.0
 40
0.03125
 41
0.03125
  0
VERTEX
  5
388
  8
0
 10
7.125
 20
3.5
 30
0.0
  0
VERTEX
  5
389
  8
0
 10
5.1875
 20
3.5
 30
0.0
  0
SEQEND
  5
38A
  8
0
  0
POLYLINE
  5
38B
  8
0
 66
     1
 10
0.0
 20
0.0
 30
0.0
 40
0.03125
 41
0.03125
  0
VERTEX
  5
38C
  8
0
 10
1.0
 20
4.5
 30
0.0
  0
VERTEX
  5
38D
  8
0
 10
17.0
 20
4.5
 30
0.0
  0
SEQEND
  5
38E
  8
0
  0
POLYLINE
  5
38F
  8
0
 66
     1
 10
0.0
 20
0.0
 30
0.0
 40
0.03125
 41
0.03125
  0
VERTEX
  5
390
  8
0
 10
17.0
 20
3.0
 30
0.0
  0
VERTEX
  5
391
  8
0
 10
1.0
 20
3.0
 30
0.0
  0
SEQEND
  5
392
  8
0
  0
TEXT
  5
393
  8
0
 10
6.4375
 20
4.125
 30
0.0
 40
0.09375
  1
%%P 1
  7
MOHAWK$0$STANDARD
  0
CIRCLE
  5
394
  8
0
 10
6.7696053199662609
 20
4.1972447518704996
 30
0.0
 40
0.0244051144589954
  0
TEXT
  5
395
  8
0
 10
1.25
 20
3.9375
 30
0.0
 40
0.09375
  1
2. UNLESS OTHERWISE SPECIFIED, SURFACE
  7
MOHAWK$0$STANDARD
  0
TEXT
  5
396
  8
0
 10
1.5
 20
3.75
 30
0.0
 40
0.09375
  1
FINISH TO BE 125 RMS.
  7
MOHAWK$0$STANDARD
  0
TEXT
  5
397
  8
0
 10
13.125
 20
4.125
 30
0.0
 40
0.25
  1
MOHAWK RESOURCES LTD.
 41
0.7905009759271306
  7
MOHAWK$0$STANDARD2
 72
     5
 11
16.875
 21
4.125
 31
0.0
  0
ENDBLK
  5
2C4
  8
0
  0
BLOCK
  8
0
  2
CONF
 70
     0
 10
3.0
 20
3.0
 30
0.0
  3
CONF
  1
CONF
  0
LINE
  5
3B7
  8
0
 10
2.5
 20
4.0
 30
0.0
 11
7.5
 21
4.0
 31
0.0
  0
TEXT
  5
3B8
  8
0
 10
2.637648809523808
 20
3.6875
 30
0.0
 40
0.15625
  1
NOTICE OF CONFIDENTIAL INFORMATION
 51
15.0
  7
CONF$0$LEROY
 72
     1
 11
5.0
 21
3.6875
 31
0.0
  0
LINE
  5
3BA
  8
0
 10
2.65625
 20
3.609375
 30
0.0
 11
7.34375
 21
3.609375
 31
0.0
  0
TEXT
  5
3BB
  8
0
 10
2.718363672171427
 20
3.267932681490751
 30
0.0
 40
0.078125
  1
INFORMATION CONTAINED HEREIN IS CONFIDENTIAL AND PROPERTY OF 
  7
CONF$0$LEROY2
  0
TEXT
  5
3BD
  8
0
 10
2.718363672171427
 20
3.1414445862526561
 30
0.0
 40
0.078125
  1
MOHAWK RESOURCES LTD.. WHERE DRAWING IS FURNISHED TO OTHERS
  7
CONF$0$LEROY2
  0
TEXT
  5
3BE
  8
0
 10
2.718363672171427
 20
3.0149564910145599
 30
0.0
 40
0.078125
  1
IT SHALL BE USED SOLELY FOR PURPOSES OF INSPECTION, INSTALLATION,
  7
CONF$0$LEROY2
  0
TEXT
  5
3BF
  8
0
 10
2.718363672171427
 20
2.888468395776465
 30
0.0
 40
0.078125
  1
OR MAINTENANCE. THE INFORMATION SHALL NOT BE USED OR DISCLOSED
  7
CONF$0$LEROY2
  0
TEXT
  5
3C0
  8
0
 10
2.718363672171427
 20
2.7619803005383701
 30
0.0
 40
0.078125
  1
BY THE RECIPIENT FOR ANY OTHER PURPOSES WHATSOEVER.
  7
CONF$0$LEROY2
  0
LINE
  5
3C1
  8
0
 10
2.5
 20
4.0
 30
0.0
 11
2.5
 21
2.5
 31
0.0
  0
LINE
  5
3C2
  8
0
 10
2.5
 20
2.5
 30
0.0
 11
7.5
 21
2.5
 31
0.0
  0
LINE
  5
3C3
  8
0
 10
7.5
 20
2.5
 30
0.0
 11
7.5
 21
4.0
 31
0.0
  0
ENDBLK
  5
2C7
  8
0
  0
BLOCK
  8
0
  2
REV
 70
     0
 10
11.0
 20
5.0
 30
0.0
  3
REV
  1
REV
  0
POLYLINE
  5
3C9
  8
0
 66
     1
 10
0.0
 20
0.0
 30
0.0
 40
0.03125
 41
0.03125
  0
VERTEX
  5
3CA
  8
0
 10
3.0625
 20
4.1875
 30
0.0
  0
VERTEX
  5
3CB
  8
0
 10
3.3125
 20
4.5625
 30
0.0
  0
VERTEX
  5
3CC
  8
0
 10
3.5625
 20
4.1875
 30
0.0
  0
VERTEX
  5
3CD
  8
0
 10
3.0625
 20
4.1875
 30
0.0
  0
VERTEX
  5
3CE
  8
0
 10
3.3125
 20
4.5625
 30
0.0
  0
SEQEND
  5
3CF
  8
0
  0
POLYLINE
  5
3D0
  8
0
 66
     1
 10
0.0
 20
0.0
 30
0.0
 40
0.03125
 41
0.03125
  0
VERTEX
  5
3D1
  8
0
 10
2.875
 20
4.625
 30
0.0
  0
VERTEX
  5
3D2
  8
0
 10
11.0
 20
4.625
 30
0.0
  0
SEQEND
  5
3D3
  8
0
  0
POLYLINE
  5
3D4
  8
0
 66
     1
 10
0.0
 20
0.0
 30
0.0
 40
0.03125
 41
0.03125
  0
VERTEX
  5
3D5
  8
0
 10
2.875
 20
5.0
 30
0.0
  0
VERTEX
  5
3D6
  8
0
 10
11.0
 20
5.0
 30
0.0
  0
SEQEND
  5
3D7
  8
0
  0
TEXT
  5
3D8
  8
0
 10
5.6383928571428568
 20
4.75
 30
0.0
 40
0.09375
  1
DESCRIPTION
  7
REV$0$STANDARD
 72
     1
 11
6.125
 21
4.75
 31
0.0
  0
TEXT
  5
3DA
  8
0
 10
3.151785714285714
 20
4.75
 30
0.0
 40
0.09375
  1
REV.
  7
REV$0$STANDARD
 72
     1
 11
3.3125
 21
4.75
 31
0.0
  0
TEXT
  5
3DB
  8
0
 10
8.8794642857142865
 20
4.75
 30
0.0
 40
0.09375
  1
DATE
  7
REV$0$STANDARD
 72
     1
 11
9.0625
 21
4.75
 31
0.0
  0
TEXT
  5
3DC
  8
0
 10
9.7745535714285712
 20
4.75
 30
0.0
 40
0.09375
  1
BY
  7
REV$0$STANDARD
 72
     1
 11
9.875
 21
4.75
 31
0.0
  0
TEXT
  5
3DD
  8
0
 10
10.390625
 20
4.75
 30
0.0
 40
0.09375
  1
APP'D.
  7
REV$0$STANDARD
 72
     1
 11
10.625
 21
4.75
 31
0.0
  0
POLYLINE
  5
3DE
  8
0
 66
     1
 10
0.0
 20
0.0
 30
0.0
 40
0.03125
 41
0.03125
  0
VERTEX
  5
3DF
  8
0
 10
2.875
 20
4.125
 30
0.0
  0
VERTEX
  5
3E0
  8
0
 10
2.875
 20
5.0
 30
0.0
  0
SEQEND
  5
3E1
  8
0
  0
POLYLINE
  5
3E2
  8
0
 66
     1
 10
0.0
 20
0.0
 30
0.0
 40
0.03125
 41
0.03125
  0
VERTEX
  5
3E3
  8
0
 10
3.75
 20
4.125
 30
0.0
  0
VERTEX
  5
3E4
  8
0
 10
3.75
 20
5.0
 30
0.0
  0
SEQEND
  5
3E5
  8
0
  0
POLYLINE
  5
3E6
  8
0
 66
     1
 10
0.0
 20
0.0
 30
0.0
 40
0.03125
 41
0.03125
  0
VERTEX
  5
3E7
  8
0
 10
8.625
 20
5.0
 30
0.0
  0
VERTEX
  5
3E8
  8
0
 10
8.625
 20
4.125
 30
0.0
  0
SEQEND
  5
3E9
  8
0
  0
POLYLINE
  5
3EA
  8
0
 66
     1
 10
0.0
 20
0.0
 30
0.0
 40
0.03125
 41
0.03125
  0
VERTEX
  5
3EB
  8
0
 10
9.5
 20
4.125
 30
0.0
  0
VERTEX
  5
3EC
  8
0
 10
9.5
 20
5.0
 30
0.0
  0
SEQEND
  5
3ED
  8
0
  0
POLYLINE
  5
3EE
  8
0
 66
     1
 10
0.0
 20
0.0
 30
0.0
 40
0.03125
 41
0.03125
  0
VERTEX
  5
3EF
  8
0
 10
10.25
 20
4.125
 30
0.0
  0
VERTEX
  5
3F0
  8
0
 10
10.25
 20
5.0
 30
0.0
  0
SEQEND
  5
3F1
  8
0
  0
POLYLINE
  5
3F2
  8
0
 66
     1
 10
0.0
 20
0.0
 30
0.0
 40
0.03125
 41
0.03125
  0
VERTEX
  5
3F3
  8
0
 10
11.0
 20
4.125
 30
0.0
  0
VERTEX
  5
3F4
  8
0
 10
11.0
 20
5.0
 30
0.0
  0
SEQEND
  5
3F5
  8
0
  0
ENDBLK
  5
2CA
  8
0
  0
BLOCK
  8
DS$0$ASHADE
  2
DS$0$AVE_RENDER
 70
     0
 10
0.0
 20
0.0
 30
0.0
  3
DS$0$AVE_RENDER
  1
AVE_RENDER
  0
ENDBLK
  5
324
  8
0
  0
ENDSEC
  0
SECTION
  2
ENTITIES
  0
INSERT
  5
E7
  8
0
  2
LAYERS
 10
0.0
 20
0.0
 30
0.0
  0
INSERT
  5
E8
  8
0
  2
DS
 10
0.0
 20
0.0
 30
0.0
  0
INSERT
  5
E9
  8
A1-BORDER-LABELS
 66
     1
  2
DTITLE
 10
33.5
 20
0.5
 30
0.0
  0
ATTRIB
  5
EA
  8
A1-BORDER-LABELS
 10
29.625
 20
1.125
 30
0.0
 40
0.125
  1
BASE PLATE, MAINSIDE
 51
15.0
  7
LEROY
  2
DRAW-TITLE
 70
     4
  0
ATTRIB
  5
EB
  8
A1-BORDER-LABELS
 10
33.1875
 20
0.625
 30
0.0
 40
0.125
  1
A
 51
15.0
  7
LEROY
  2
R
 70
     4
  0
ATTRIB
  5
EC
  8
A1-BORDER-LABELS
 10
31.375
 20
0.625
 30
0.0
 40
0.125
  1
007-050-103
 51
15.0
  7
LEROY
  2
DRAW-NO.
 70
     4
  0
ATTRIB
  5
ED
  8
A1-BORDER-LABELS
 10
29.625
 20
0.625
 30
0.0
 40
0.125
  1
600-000-041
 51
15.0
  7
LEROY
  2
FROM
 70
     4
  0
ATTRIB
  5
EE
  8
A1-BORDER-LABELS
 10
21.875
 20
0.625
 30
0.0
 40
0.125
  1
B50103
 51
15.0
  7
LEROY
  2
FILE-NAME
 70
     4
  0
ATTRIB
  5
EF
  8
A1-BORDER-LABELS
 10
27.25
 20
1.625
 30
0.0
 40
0.125
  1
1/2
 51
15.0
  7
LEROY
  2
SCALE
 70
     4
  0
ATTRIB
  5
F0
  8
A1-BORDER-LABELS
 10
28.375
 20
0.625
 30
0.0
 40
0.125
  1
67.5
 51
15.0
  7
LEROY
  2
WEIGHT
 70
     4
  0
ATTRIB
  5
F1
  8
A1-BORDER-LABELS
 10
27.25
 20
0.625
 30
0.0
 40
0.125
  1
2/95
 51
15.0
  7
LEROY
  2
DATE
 70
     4
  0
ATTRIB
  5
F2
  8
A1-BORDER-LABELS
 10
28.375
 20
1.625
 30
0.0
 40
0.125
  1
R.V.
 51
15.0
  7
LEROY
  2
DRAWN
 70
     4
  0
SEQEND
  5
F3
  8
A1-BORDER-LABELS
  0
INSERT
  5
F4
  8
A1-BORDER-LABELS
 66
     1
  2
NASSY
 10
33.5
 20
0.5
 30
0.0
  0
ATTRIB
  5
F5
  8
A1-BORDER-LABELS
 10
23.75
 20
1.0
 30
0.0
 40
0.125
  1
007-050-005
 51
15.0
  7
LEROY
  2
NEXT-ASSEMBLY
 70
     4
  0
ATTRIB
  5
F6
  8
A1-BORDER-LABELS
 10
25.5
 20
1.0
 30
0.0
 40
0.125
  1
007-010-007
 51
15.0
  7
LEROY
  2
NEXT-ASSEMBLY
 70
     4
  0
ATTRIB
  5
F7
  8
A1-BORDER-LABELS
 10
23.75
 20
1.375
 30
0.0
 40
0.125
  1
007-010-008
 51
15.0
  7
LEROY
  2
NEXT-ASSEMBLY
 70
     4
  0
ATTRIB
  5
F8
  8
A1-BORDER-LABELS
 10
25.5
 20
1.375
 30
0.0
 40
0.125
  1

 51
15.0
  7
LEROY
  2
NEXT-ASSEMBLY
 70
     4
  0
ATTRIB
  5
F9
  8
A1-BORDER-LABELS
 10
23.75
 20
1.75
 30
0.0
 40
0.125
  1

 51
15.0
  7
LEROY
  2
NEXT-ASSEMBLY
 70
     4
  0
ATTRIB
  5
FA
  8
A1-BORDER-LABELS
 10
25.5
 20
1.75
 30
0.0
 40
0.125
  1

 51
15.0
  7
LEROY
  2
NEXT-ASSEMBLY
 70
     4
  0
SEQEND
  5
FB
  8
A1-BORDER-LABELS
  0
INSERT
  5
FC
  8
0
  2
LAYERS2
 10
4.0
 20
4.0
 30
0.0
 41
0.5
 42
0.5
 43
0.5
  0
LINE
  5
FD
  8
A-LINE-OBJECT
 10
5.1027951992919247
 20
10.22424207382265
 30
0.0
 11
7.1027951992919247
 21
10.22424207382265
 31
0.0
  0
LINE
  5
FE
  8
A-LINE-OBJECT
 10
17.915295199291918
 20
10.72424207382265
 30
0.0
 11
17.915295199291918
 21
13.456638545385401
 31
0.0
  0
LINE
  5
FF
  8
A-LINE-OBJECT
 10
13.698951582806201
 20
17.724242073822658
 30
0.0
 11
9.3992951992919256
 21
17.724242073822658
 31
0.0
  0
LINE
  5
100
  8
A-LINE-OBJECT
 10
4.6027951992919247
 20
17.224242073822658
 30
0.0
 11
4.6027951992919247
 21
14.02074207382265
 31
0.0
  0
LINE
  5
101
  8
A-LINE-OBJECT
 10
26.18253868339136
 20
10.22424207382265
 30
0.0
 11
26.18253868339136
 21
17.724242073822658
 31
0.0
  0
LINE
  5
102
  8
A-LINE-OBJECT
 10
26.18253868339136
 20
17.724242073822658
 30
0.0
 11
26.55753868339136
 21
17.724242073822658
 31
0.0
  0
LINE
  5
103
  8
A-LINE-OBJECT
 10
26.55753868339136
 20
17.724242073822658
 30
0.0
 11
26.55753868339136
 21
10.22424207382265
 31
0.0
  0
LINE
  5
104
  8
A-LINE-OBJECT
 10
26.55753868339136
 20
10.22424207382265
 30
0.0
 11
26.18253868339136
 21
10.22424207382265
 31
0.0
  0
LINE
  5
105
  8
A-LINE-OBJECT
 10
17.771261838796541
 20
13.80776210135935
 30
0.0
 11
14.054918222310819
 21
17.5753656297966
 31
0.0
  0
LINE
  5
106
  8
A-LINE-OBJECT
 10
7.8527951992919247
 20
11.47424207382265
 30
0.0
 11
8.1670060138796217
 21
11.47424207382265
 31
0.0
  0
LINE
  5
107
  8
A-LINE-OBJECT
 10
8.5087951992919315
 20
11.91174207382265
 30
0.0
 11
14.00879519929193
 21
11.91174207382265
 31
0.0
  0
LINE
  5
108
  8
A-LINE-OBJECT
 10
7.6027951992919247
 20
11.22424207382265
 30
0.0
 11
7.6027951992919247
 21
10.72424207382265
 31
0.0
  0
LINE
  5
109
  8
A-LINE-OBJECT
 10
14.35058438470424
 20
11.47424207382265
 30
0.0
 11
14.66479519929193
 21
11.47424207382265
 31
0.0
  0
LINE
  5
10A
  8
A-LINE-OBJECT
 10
14.91479519929193
 20
11.22424207382265
 30
0.0
 11
14.91479519929192
 21
10.72424207382265
 31
0.0
  0
LINE
  5
10B
  8
A-LINE-OBJECT
 10
15.41479519929192
 20
10.22424207382265
 30
0.0
 11
17.415295199291918
 21
10.22424207382265
 31
0.0
  0
ARC
  5
10C
  8
A-LINE-OBJECT
 10
5.1027951992919247
 20
10.72424207382265
 30
0.0
 40
0.5
 50
180.0
 51
219.6708090480812
  0
ARC
  5
10D
  8
A-LINE-OBJECT
 10
5.1027951992919247
 20
17.224242073822658
 30
0.0
 40
0.5
 50
90.0
 51
129.70960529917309
  0
ARC
  5
10E
  8
A-LINE-OBJECT
 10
13.698951582806201
 20
17.224242073822658
 30
0.0
 40
0.5
 50
44.607569290659143
 51
61.519787700400947
  0
ARC
  5
10F
  8
A-LINE-OBJECT
 10
17.415295199291918
 20
13.456638545385401
 30
0.0
 40
0.5
 50
0.0
 51
16.981269299836349
  0
ARC
  5
110
  8
A-LINE-OBJECT
 10
17.415295199291918
 20
10.72424207382265
 30
0.0
 40
0.5
 50
270.0
 51
310.14589158439441
  0
ARC
  5
111
  8
A-LINE-OBJECT
 10
15.41479519929192
 20
10.72424207382265
 30
0.0
 40
0.5
 50
180.0
 51
270.0
  0
ARC
  5
112
  8
A-LINE-OBJECT
 10
7.1027951992919247
 20
10.72424207382265
 30
0.0
 40
0.5
 50
270.0
 51
0.0
  0
ARC
  5
113
  8
A-LINE-OBJECT
 10
5.1027951992919247
 20
17.224242073822658
 30
0.0
 40
0.21875
 50
147.318911126443
 51
122.7727366480899
  0
ARC
  5
114
  8
A-LINE-OBJECT
 10
9.3527951992919256
 20
17.224242073822658
 30
0.0
 40
0.21875
 50
102.2730872391765
 51
77.726912760823183
  0
ARC
  5
115
  8
A-LINE-OBJECT
 10
13.633795199291921
 20
17.224242073822658
 30
0.0
 40
0.21875
 50
72.631978500487818
 51
48.085804022134511
  0
ARC
  5
116
  8
A-LINE-OBJECT
 10
5.1027951992919247
 20
13.97424207382265
 30
0.0
 40
0.21875
 50
192.27308723917679
 51
167.72691276082321
  0
ARC
  5
117
  8
A-LINE-OBJECT
 10
5.1027951992919247
 20
10.72424207382265
 30
0.0
 40
0.21875
 50
237.2801148753515
 51
212.73394039699801
  0
ARC
  5
118
  8
A-LINE-OBJECT
 10
17.415295199291918
 20
10.72424207382265
 30
0.0
 40
0.21875
 50
327.75519741166488
 51
303.20902293331102
  0
ARC
  5
119
  8
A-LINE-OBJECT
 10
17.415295199291918
 20
13.47424207382265
 30
0.0
 40
0.21875
 50
32.694493439257798
 51
8.1483189609041897
  0
LINE
  5
11A
  8
A-LINE-CENTER
 62
     5
 10
5.057795199291923
 20
17.224242073822658
 30
0.0
 11
5.1477951992919273
 21
17.224242073822658
 31
0.0
  0
LINE
  5
11B
  8
A-LINE-CENTER
 62
     5
 10
5.1027951992919247
 20
17.17924207382265
 30
0.0
 11
5.1027951992919247
 21
17.26924207382265
 31
0.0
  0
LINE
  5
11C
  8
A-LINE-CENTER
 62
     5
 10
9.3077951992919274
 20
17.224242073822658
 30
0.0
 11
9.3977951992919273
 21
17.224242073822658
 31
0.0
  0
LINE
  5
11D
  8
A-LINE-CENTER
 62
     5
 10
9.3527951992919256
 20
17.17924207382265
 30
0.0
 11
9.3527951992919256
 21
17.26924207382265
 31
0.0
  0
LINE
  5
11E
  8
A-LINE-CENTER
 62
     5
 10
13.588795199291919
 20
17.224242073822658
 30
0.0
 11
13.678795199291921
 21
17.224242073822658
 31
0.0
  0
LINE
  5
11F
  8
A-LINE-CENTER
 62
     5
 10
13.633795199291921
 20
17.17924207382265
 30
0.0
 11
13.633795199291921
 21
17.26924207382265
 31
0.0
  0
LINE
  5
120
  8
A-LINE-CENTER
 62
     5
 10
17.37029519929192
 20
13.47424207382265
 30
0.0
 11
17.46029519929192
 21
13.47424207382265
 31
0.0
  0
LINE
  5
121
  8
A-LINE-CENTER
 62
     5
 10
17.415295199291918
 20
13.42924207382265
 30
0.0
 11
17.415295199291918
 21
13.51924207382265
 31
0.0
  0
LINE
  5
122
  8
A-LINE-CENTER
 62
     5
 10
17.37029519929192
 20
10.72424207382265
 30
0.0
 11
17.46029519929192
 21
10.72424207382265
 31
0.0
  0
LINE
  5
123
  8
A-LINE-CENTER
 62
     5
 10
17.415295199291918
 20
10.67924207382265
 30
0.0
 11
17.415295199291918
 21
10.76924207382265
 31
0.0
  0
LINE
  5
124
  8
A-LINE-CENTER
 62
     5
 10
5.057795199291923
 20
10.72424207382265
 30
0.0
 11
5.1477951992919273
 21
10.72424207382265
 31
0.0
  0
LINE
  5
125
  8
A-LINE-CENTER
 62
     5
 10
5.1027951992919247
 20
10.67924207382265
 30
0.0
 11
5.1027951992919247
 21
10.76924207382265
 31
0.0
  0
LINE
  5
126
  8
A-LINE-CENTER
 62
     5
 10
5.057795199291923
 20
13.97424207382265
 30
0.0
 11
5.1477951992919273
 21
13.97424207382265
 31
0.0
  0
LINE
  5
127
  8
A-LINE-CENTER
 62
     5
 10
5.1027951992919247
 20
13.92924207382265
 30
0.0
 11
5.1027951992919247
 21
14.01924207382265
 31
0.0
  0
ARC
  5
128
  8
A-LINE-OBJECT
 10
14.66479519929193
 20
11.22424207382265
 30
0.0
 40
0.25
 50
0.0
 51
90.0
  0
ARC
  5
129
  8
A-LINE-OBJECT
 10
7.8527951992919247
 20
11.22424207382265
 30
0.0
 40
0.25
 50
90.0
 51
180.0
  0
LINE
  5
12A
  8
A-LINE-HIDDEN
 62
     3
 10
26.18253868339136
 20
17.431683419434961
 30
0.0
 11
26.55753868339136
 21
17.431683419434961
 31
0.0
  0
LINE
  5
12B
  8
A-LINE-CENTER
 62
     5
 10
25.901288683391371
 20
17.224242073822658
 30
0.0
 11
26.80753868339136
 21
17.224242073822658
 31
0.0
  0
LINE
  5
12C
  8
A-LINE-HIDDEN
 62
     3
 10
26.18253868339136
 20
17.00849177272427
 30
0.0
 11
26.55753868339136
 21
17.00849177272427
 31
0.0
  0
LINE
  5
12D
  8
A-LINE-HIDDEN
 62
     3
 10
26.18253868339136
 20
13.69299207382265
 30
0.0
 11
26.55753868339136
 21
13.69299207382265
 31
0.0
  0
LINE
  5
12E
  8
A-LINE-CENTER
 62
     5
 10
25.901288683391371
 20
13.47424207382265
 30
0.0
 11
26.901288683391371
 21
13.47424207382265
 31
0.0
  0
LINE
  5
12F
  8
A-LINE-HIDDEN
 62
     3
 10
26.18253868339136
 20
13.256390434907839
 30
0.0
 11
26.55753868339136
 21
13.256390434907839
 31
0.0
  0
LINE
  5
130
  8
A-LINE-HIDDEN
 62
     3
 10
26.18253868339136
 20
10.942236458438719
 30
0.0
 11
26.55753868339136
 21
10.942236458438719
 31
0.0
  0
LINE
  5
131
  8
A-LINE-CENTER
 62
     5
 10
25.901288683391371
 20
10.72424207382265
 30
0.0
 11
26.80753868339136
 21
10.72424207382265
 31
0.0
  0
LINE
  5
132
  8
A-LINE-HIDDEN
 62
     3
 10
26.18253868339136
 20
10.507690622084271
 30
0.0
 11
26.55753868339136
 21
10.507690622084271
 31
0.0
  0
LINE
  5
133
  8
A-LINE-HIDDEN
 62
     3
 10
26.18253868339136
 20
14.19209371273746
 30
0.0
 11
26.55753868339136
 21
14.19209371273746
 31
0.0
  0
LINE
  5
134
  8
A-LINE-CENTER
 62
     5
 10
25.901288683391371
 20
13.97424207382265
 30
0.0
 11
26.80753868339136
 21
13.97424207382265
 31
0.0
  0
LINE
  5
135
  8
A-LINE-HIDDEN
 62
     3
 10
26.18253868339136
 20
13.75624768920658
 30
0.0
 11
26.55753868339136
 21
13.75624768920658
 31
0.0
  0
LINE
  5
136
  8
A-LINE-HIDDEN
 62
     3
 10
26.18253868339136
 20
11.91174207382265
 30
0.0
 11
26.55753868339136
 21
11.91174207382265
 31
0.0
  0
LINE
  5
137
  8
A-LINE-HIDDEN
 62
     3
 10
26.18253868339136
 20
11.44108902691587
 30
0.0
 11
26.55753868339136
 21
11.44108902691587
 31
0.0
  0
LINE
  5
138
  8
A-LINE-OBJECT
 10
17.535103478410861
 20
10.541218745379091
 30
0.0
 11
17.737663246267299
 21
10.34203945440556
 31
0.0
  0
LINE
  5
139
  8
A-LINE-OBJECT
 10
17.600308748168441
 20
10.607530680924979
 30
0.0
 11
17.80286851602488
 21
10.40835138995145
 31
0.0
  0
ARC
  5
13A
  8
A-LINE-OBJECT
 10
17.415295199291918
 20
10.72424207382265
 30
0.0
 40
0.5
 50
320.81832876058132
 51
0.0
  0
LINE
  5
13B
  8
A-LINE-OBJECT
 10
4.9843840354099127
 20
17.408172383364349
 30
0.0
 11
4.7833468023759842
 21
17.608888303113719
 31
0.0
  0
LINE
  5
13C
  8
A-LINE-OBJECT
 10
4.9186757199122084
 20
17.342358879624971
 30
0.0
 11
4.717638486878279
 21
17.543074799374331
 31
0.0
  0
ARC
  5
13D
  8
A-LINE-OBJECT
 10
5.1027951992919247
 20
17.224242073822658
 30
0.0
 40
0.5
 50
140.38204247535981
 51
180.0
  0
LINE
  5
13E
  8
A-LINE-OBJECT
 10
4.9845537491682448
 20
10.54020261617117
 30
0.0
 11
4.7837017486454414
 21
10.339301338443139
 31
0.0
  0
LINE
  5
13F
  8
A-LINE-OBJECT
 10
4.9187847530799971
 20
10.605955480394289
 30
0.0
 11
4.7179327525571892
 21
10.40505420266626
 31
0.0
  0
ARC
  5
140
  8
A-LINE-OBJECT
 10
5.1027951992919247
 20
10.72424207382265
 30
0.0
 40
0.5
 50
230.3432462242682
 51
270.0
  0
LINE
  5
141
  8
A-LINE-OBJECT
 10
4.8890446144974042
 20
13.92774207382265
 30
0.0
 11
4.6027951992919247
 21
13.92774207382265
 31
0.0
  0
LINE
  5
142
  8
A-LINE-OBJECT
 10
4.8890446144974042
 20
14.02074207382265
 30
0.0
 11
4.6027951992919247
 21
14.02074207382265
 31
0.0
  0
LINE
  5
143
  8
A-LINE-OBJECT
 10
4.6027951992919247
 20
13.92774207382265
 30
0.0
 11
4.6027951992919247
 21
10.72424207382265
 31
0.0
  0
LINE
  5
144
  8
A-LINE-OBJECT
 10
9.3062951992919274
 20
17.437992658617169
 30
0.0
 11
9.3062951992919256
 21
17.724242073822658
 31
0.0
  0
LINE
  5
145
  8
A-LINE-OBJECT
 10
9.3992951992919274
 20
17.437992658617169
 30
0.0
 11
9.3992951992919256
 21
17.724242073822658
 31
0.0
  0
LINE
  5
146
  8
A-LINE-OBJECT
 10
9.3062951992919256
 20
17.724242073822658
 30
0.0
 11
5.1027951992919247
 21
17.724242073822658
 31
0.0
  0
LINE
  5
147
  8
A-LINE-OBJECT
 10
17.63183680432563
 20
13.50524684425277
 30
0.0
 11
17.89349534168835
 21
13.60266807600177
 31
0.0
  0
LINE
  5
148
  8
A-LINE-OBJECT
 10
17.599387039756749
 20
13.59240195184506
 30
0.0
 11
17.858155832882179
 21
13.68874726822026
 31
0.0
  0
ARC
  5
149
  8
A-LINE-OBJECT
 10
17.415295199291918
 20
13.456638545385401
 30
0.0
 40
0.5
 50
27.659588228082789
 51
44.607569290659093
  0
LINE
  5
14A
  8
A-LINE-OBJECT
 10
13.77992390720893
 20
17.387024023751088
 30
0.0
 11
13.937379194341879
 21
17.663732999846602
 31
0.0
  0
LINE
  5
14B
  8
A-LINE-OBJECT
 10
13.699093858293219
 20
17.433018623350211
 30
0.0
 11
13.85128263056049
 21
17.700472324741341
 31
0.0
  0
ARC
  5
14C
  8
A-LINE-OBJECT
 10
13.698951582806201
 20
17.224242073822658
 30
0.0
 40
0.5
 50
72.262164075803071
 51
90.0
  0
LINE
  5
14D
  8
A-LINE-CENTER
 62
     5
 10
11.258795199291921
 20
9.4603260551917963
 30
0.0
 11
11.258795199291921
 21
18.32643422257015
 31
0.0
  0
LINE
  5
150
  8
A1-DIMENSIONS
 10
17.915295199291918
 20
13.900925762853211
 30
0.0
 11
17.915295199291918
 21
16.619614080050169
 31
0.0
  0
LINE
  5
154
  8
A1-DIMENSIONS
  6
BYBLOCK
 10
8.4150451992919315
 20
8.7134379609099089
 30
0.0
 11
8.4150451992919315
 21
7.8028928814278107
 31
0.0
  0
LINE
  5
155
  8
A1-DIMENSIONS
  6
BYBLOCK
 10
14.10254519929193
 20
11.309758490787059
 30
0.0
 11
14.10254519929193
 21
10.3175089384379
 31
0.0
  0
LINE
  5
156
  8
A1-DIMENSIONS
  6
BYBLOCK
 10
8.5950451992919312
 20
7.9828928814278113
 30
0.0
 11
10.797423524127719
 21
7.9828928814278113
 31
0.0
  0
LINE
  5
157
  8
A1-DIMENSIONS
  6
BYBLOCK
 10
13.92254519929193
 20
7.9828928814278113
 30
0.0
 11
11.71404810176606
 21
7.9828928814278113
 31
0.0
  0
SOLID
  5
158
  8
A1-DIMENSIONS
  6
BYBLOCK
 10
8.5950451992919312
 20
8.0128928814278115
 30
0.0
 11
8.5950451992919312
 21
7.952892881427811
 31
0.0
 12
8.4150451992919315
 22
7.9828928814278113
 32
0.0
 13
8.4150451992919315
 23
7.9828928814278113
 33
0.0
  0
SOLID
  5
159
  8
A1-DIMENSIONS
  6
BYBLOCK
 10
13.92254519929193
 20
8.0128928814278115
 30
0.0
 11
13.92254519929193
 21
7.952892881427811
 31
0.0
 12
14.10254519929193
 22
7.9828928814278113
 32
0.0
 13
14.10254519929193
 23
7.9828928814278113
 33
0.0
  0
TEXT
  5
15A
  8
A1-DIMENSIONS
  6
BYBLOCK
 10
10.880819008815729
 20
7.9293214528563816
 30
0.0
 40
0.125
  1
11 3/8
 51
15.0
  7
LEROY
 72
     4
 11
11.258795199291921
 21
7.9828928814278113
 31
0.0
  0
POINT
  5
15B
  8
A1-DIMENSIONS
  6
BYBLOCK
 10
8.4150451992919315
 20
8.7759379609099089
 30
0.0
  0
POINT
  5
15C
  8
A1-DIMENSIONS
  6
BYBLOCK
 10
14.10254519929193
 20
7.9828928814278113
 30
0.0
  0
LINE
  5
15D
  8
A1-DIMENSIONS
  6
BYBLOCK
 10
7.6027951992919247
 20
7.0911288068789746
 30
0.0
 11
7.6027951992919247
 21
6.1089002996606263
 31
0.0
  0
LINE
  5
15E
  8
A1-DIMENSIONS
  6
BYBLOCK
 10
14.91479519929193
 20
10.514449724113289
 30
0.0
 11
14.91479519929193
 21
10.30392681528788
 31
0.0
  0
LINE
  5
15F
  8
A1-DIMENSIONS
  6
BYBLOCK
 10
7.7827951992919253
 20
6.288900299660626
 30
0.0
 11
10.82705982588787
 21
6.288900299660626
 31
0.0
  0
LINE
  5
160
  8
A1-DIMENSIONS
  6
BYBLOCK
 10
14.73479519929192
 20
6.288900299660626
 30
0.0
 11
11.69053057269597
 21
6.288900299660626
 31
0.0
  0
SOLID
  5
161
  8
A1-DIMENSIONS
  6
BYBLOCK
 10
7.7827951992919253
 20
6.3189002996606263
 30
0.0
 11
7.7827951992919253
 21
6.2589002996606249
 31
0.0
 12
7.6027951992919247
 22
6.288900299660626
 32
0.0
 13
7.6027951992919247
 23
6.288900299660626
 33
0.0
  0
SOLID
  5
162
  8
A1-DIMENSIONS
  6
BYBLOCK
 10
14.73479519929192
 20
6.3189002996606263
 30
0.0
 11
14.73479519929192
 21
6.2589002996606249
 31
0.0
 12
14.91479519929192
 22
6.288900299660626
 32
0.0
 13
14.91479519929192
 23
6.288900299660626
 33
0.0
  0
TEXT
  5
163
  8
A1-DIMENSIONS
  6
BYBLOCK
 10
10.880819008815729
 20
6.226400299660626
 30
0.0
 40
0.125
  1
14 5/8
 51
15.0
  7
LEROY
 72
     1
 11
11.258795199291921
 21
6.288900299660626
 31
0.0
 73
     2
  0
POINT
  5
164
  8
A1-DIMENSIONS
  6
BYBLOCK
 10
7.6027951992919247
 20
7.1536288068789746
 30
0.0
  0
POINT
  5
165
  8
A1-DIMENSIONS
  6
BYBLOCK
 10
14.91479519929192
 20
10.72424207382265
 30
0.0
  0
POINT
  5
166
  8
A1-DIMENSIONS
  6
BYBLOCK
 10
14.91479519929192
 20
6.288900299660626
 30
0.0
  0
LINE
  5
167
  8
A1-DIMENSIONS
  6
BYBLOCK
 10
15.092260269791829
 20
10.22424207382265
 30
0.0
 11
12.096048342794299
 21
10.22424207382265
 31
0.0
  0
LINE
  5
168
  8
A1-DIMENSIONS
  6
BYBLOCK
 10
12.610972501983699
 20
11.91174207382265
 30
0.0
 11
12.096048342794299
 21
11.91174207382265
 31
0.0
  0
LINE
  5
169
  8
A1-DIMENSIONS
  6
BYBLOCK
 10
12.27604834279429
 20
10.404242073822649
 30
0.0
 11
12.27604834279429
 21
10.91549207382265
 31
0.0
  0
LINE
  5
16A
  8
A1-DIMENSIONS
  6
BYBLOCK
 10
12.27604834279429
 20
11.73174207382265
 30
0.0
 11
12.27604834279429
 21
11.220492073822649
 31
0.0
  0
SOLID
  5
16B
  8
A1-DIMENSIONS
  6
BYBLOCK
 10
12.2460483427943
 20
10.404242073822649
 30
0.0
 11
12.3060483427943
 21
10.404242073822649
 31
0.0
 12
12.27604834279429
 22
10.22424207382265
 32
0.0
 13
12.27604834279429
 23
10.22424207382265
 33
0.0
  0
SOLID
  5
16C
  8
A1-DIMENSIONS
  6
BYBLOCK
 10
12.2460483427943
 20
11.73174207382265
 30
0.0
 11
12.3060483427943
 21
11.73174207382265
 31
0.0
 12
12.27604834279429
 22
11.91174207382265
 32
0.0
 13
12.27604834279429
 23
11.91174207382265
 33
0.0
  0
TEXT
  5
16D
  8
A1-DIMENSIONS
  6
BYBLOCK
 10
11.966524533270491
 20
11.00549207382265
 30
0.0
 40
0.125
  1
3 3/8
 51
15.0
  7
LEROY
 72
     1
 11
12.27604834279429
 21
11.06799207382265
 31
0.0
 73
     2
  0
POINT
  5
16E
  8
A1-DIMENSIONS
  6
BYBLOCK
 10
15.88192028322039
 20
10.22424207382265
 30
0.0
  0
POINT
  5
16F
  8
A1-DIMENSIONS
  6
BYBLOCK
 10
12.673472501983699
 20
11.91174207382265
 30
0.0
  0
POINT
  5
170
  8
A1-DIMENSIONS
  6
BYBLOCK
 10
12.27604834279429
 20
11.91174207382265
 30
0.0
  0
LINE
  5
171
  8
A1-DIMENSIONS
  6
BYBLOCK
 10
11.258795199291921
 20
11.84924207382265
 30
0.0
 11
11.258795199291921
 21
8.1700243559392867
 31
0.0
  0
LINE
  5
172
  8
A1-DIMENSIONS
  6
BYBLOCK
 10
4.6027951992919247
 20
10.45408473233539
 30
0.0
 11
4.6027951992919247
 21
10.29487206652119
 31
0.0
  0
LINE
  5
173
  8
A1-DIMENSIONS
  6
BYBLOCK
 10
11.078795199291919
 20
3.8018626384113419
 30
0.0
 11
8.4220543822197822
 21
3.8018626384113419
 31
0.0
  0
LINE
  5
174
  8
A1-DIMENSIONS
  6
BYBLOCK
 10
4.7827951992919253
 20
3.8018626384113419
 30
0.0
 11
7.4395360163640669
 21
3.8018626384113419
 31
0.0
  0
SOLID
  5
175
  8
A1-DIMENSIONS
  6
BYBLOCK
 10
11.078795199291919
 20
3.8318626384113421
 30
0.0
 11
11.078795199291919
 21
3.7718626384113421
 31
0.0
 12
11.258795199291921
 22
3.8018626384113419
 32
0.0
 13
11.258795199291921
 23
3.8018626384113419
 33
0.0
  0
SOLID
  5
176
  8
A1-DIMENSIONS
  6
BYBLOCK
 10
4.7827951992919253
 20
3.8318626384113421
 30
0.0
 11
4.7827951992919253
 21
3.7718626384113421
 31
0.0
 12
4.6027951992919247
 22
3.8018626384113419
 32
0.0
 13
4.6027951992919247
 23
3.8018626384113419
 33
0.0
  0
TEXT
  5
177
  8
A1-DIMENSIONS
  6
BYBLOCK
 10
7.493295199291925
 20
3.7393626384113419
 30
0.0
 40
0.125
  1
13 5/16
 51
15.0
  7
LEROY
 72
     1
 11
7.930795199291925
 21
3.8018626384113419
 31
0.0
 73
     2
  0
POINT
  5
178
  8
A1-DIMENSIONS
  6
BYBLOCK
 10
11.258795199291921
 20
11.91174207382265
 30
0.0
  0
POINT
  5
179
  8
A1-DIMENSIONS
  6
BYBLOCK
 10
4.6027951992919247
 20
10.72424207382265
 30
0.0
  0
POINT
  5
17A
  8
A1-DIMENSIONS
  6
BYBLOCK
 10
4.6027951992919247
 20
3.8018626384113419
 30
0.0
  0
LINE
  5
17B
  8
A1-DIMENSIONS
  6
BYBLOCK
 10
4.845357993041409
 20
10.22424207382265
 30
0.0
 11
3.2624403344928958
 21
10.22424207382265
 31
0.0
  0
LINE
  5
17C
  8
A1-DIMENSIONS
  6
BYBLOCK
 10
5.0402951992919247
 20
13.97424207382265
 30
0.0
 11
3.2624403344928958
 21
13.97424207382265
 31
0.0
  0
LINE
  5
17D
  8
A1-DIMENSIONS
  6
BYBLOCK
 10
3.442440334492896
 20
10.404242073822649
 30
0.0
 11
3.442440334492896
 21
11.94674207382265
 31
0.0
  0
LINE
  5
17E
  8
A1-DIMENSIONS
  6
BYBLOCK
 10
3.442440334492896
 20
13.79424207382265
 30
0.0
 11
3.442440334492896
 21
12.251742073822649
 31
0.0
  0
SOLID
  5
17F
  8
A1-DIMENSIONS
  6
BYBLOCK
 10
3.4124403344928962
 20
10.404242073822649
 30
0.0
 11
3.4724403344928958
 21
10.404242073822649
 31
0.0
 12
3.442440334492896
 22
10.22424207382265
 32
0.0
 13
3.442440334492896
 23
10.22424207382265
 33
0.0
  0
SOLID
  5
180
  8
A1-DIMENSIONS
  6
BYBLOCK
 10
3.4124403344928962
 20
13.79424207382265
 30
0.0
 11
3.4724403344928958
 21
13.79424207382265
 31
0.0
 12
3.442440334492896
 22
13.97424207382265
 32
0.0
 13
3.442440334492896
 23
13.97424207382265
 33
0.0
  0
TEXT
  5
181
  8
A1-DIMENSIONS
  6
BYBLOCK
 10
3.1329165249690871
 20
12.03674207382265
 30
0.0
 40
0.125
  1
7 1/2
 51
15.0
  7
LEROY
 72
     1
 11
3.442440334492896
 21
12.09924207382265
 31
0.0
 73
     2
  0
POINT
  5
182
  8
A1-DIMENSIONS
  6
BYBLOCK
 10
5.1027951992919247
 20
10.22424207382265
 30
0.0
  0
POINT
  5
183
  8
A1-DIMENSIONS
  6
BYBLOCK
 10
5.1027951992919247
 20
13.97424207382265
 30
0.0
  0
POINT
  5
184
  8
A1-DIMENSIONS
  6
BYBLOCK
 10
3.442440334492896
 20
13.97424207382265
 30
0.0
  0
LINE
  5
185
  8
A1-DIMENSIONS
  6
BYBLOCK
 10
4.6027951992919247
 20
3.7393626384113419
 30
0.0
 11
4.6027951992919247
 21
2.7209151361262571
 31
0.0
  0
LINE
  5
186
  8
A1-DIMENSIONS
  6
BYBLOCK
 10
17.915295199291918
 20
10.47068510507431
 30
0.0
 11
17.915295199291918
 21
10.31826350083513
 31
0.0
  0
LINE
  5
187
  8
A1-DIMENSIONS
  6
BYBLOCK
 10
4.7827951992919253
 20
2.9009151361262568
 30
0.0
 11
10.806476492554539
 21
2.9009151361262568
 31
0.0
  0
LINE
  5
188
  8
A1-DIMENSIONS
  6
BYBLOCK
 10
17.735295199291919
 20
2.9009151361262568
 30
0.0
 11
11.711613906029299
 21
2.9009151361262568
 31
0.0
  0
SOLID
  5
189
  8
A1-DIMENSIONS
  6
BYBLOCK
 10
4.7827951992919253
 20
2.9309151361262571
 30
0.0
 11
4.7827951992919253
 21
2.870915136126257
 31
0.0
 12
4.6027951992919247
 22
2.9009151361262568
 32
0.0
 13
4.6027951992919247
 23
2.9009151361262568
 33
0.0
  0
SOLID
  5
18A
  8
A1-DIMENSIONS
  6
BYBLOCK
 10
17.735295199291919
 20
2.9309151361262571
 30
0.0
 11
17.735295199291919
 21
2.870915136126257
 31
0.0
 12
17.915295199291918
 22
2.9009151361262568
 32
0.0
 13
17.915295199291918
 23
2.9009151361262568
 33
0.0
  0
TEXT
  5
18B
  8
A1-DIMENSIONS
  6
BYBLOCK
 10
10.8899975802443
 20
2.8384151361262568
 30
0.0
 40
0.125
  1
26 5/8
 51
15.0
  7
LEROY
 72
     1
 11
11.25904519929192
 21
2.9009151361262568
 31
0.0
 73
     2
  0
POINT
  5
18C
  8
A1-DIMENSIONS
  6
BYBLOCK
 10
4.6027951992919247
 20
3.8018626384113419
 30
0.0
  0
POINT
  5
18D
  8
A1-DIMENSIONS
  6
BYBLOCK
 10
17.915295199291918
 20
10.72424207382265
 30
0.0
  0
POINT
  5
18E
  8
A1-DIMENSIONS
  6
BYBLOCK
 10
17.915295199291918
 20
2.9009151361262568
 30
0.0
  0
LINE
  5
18F
  8
A1-DIMENSIONS
  6
BYBLOCK
 10
21.28007309406096
 20
10.22424207382265
 30
0.0
 11
22.191383751449731
 21
10.22424207382265
 31
0.0
  0
LINE
  5
190
  8
A1-DIMENSIONS
  6
BYBLOCK
 10
14.13242385399495
 20
17.724242073822658
 30
0.0
 11
22.191383751449731
 21
17.724242073822658
 31
0.0
  0
LINE
  5
191
  8
A1-DIMENSIONS
  6
BYBLOCK
 10
22.011383751449738
 20
10.404242073822649
 30
0.0
 11
22.011383751449738
 21
13.82174207382265
 31
0.0
  0
LINE
  5
192
  8
A1-DIMENSIONS
  6
BYBLOCK
 10
22.011383751449738
 20
17.544242073822659
 30
0.0
 11
22.011383751449738
 21
14.126742073822649
 31
0.0
  0
SOLID
  5
193
  8
A1-DIMENSIONS
  6
BYBLOCK
 10
21.98138375144973
 20
10.404242073822649
 30
0.0
 11
22.041383751449739
 21
10.404242073822649
 31
0.0
 12
22.011383751449738
 22
10.22424207382265
 32
0.0
 13
22.011383751449738
 23
10.22424207382265
 33
0.0
  0
SOLID
  5
194
  8
A1-DIMENSIONS
  6
BYBLOCK
 10
21.98138375144973
 20
17.544242073822659
 30
0.0
 11
22.041383751449739
 21
17.544242073822659
 31
0.0
 12
22.011383751449738
 22
17.724242073822658
 32
0.0
 13
22.011383751449738
 23
17.724242073822658
 33
0.0
  0
TEXT
  5
195
  8
A1-DIMENSIONS
  6
BYBLOCK
 10
21.832812322878311
 20
13.91174207382265
 30
0.0
 40
0.125
  1
15"
 51
15.0
  7
LEROY
 72
     1
 11
22.011383751449738
 21
13.97424207382265
 31
0.0
 73
     2
  0
POINT
  5
196
  8
A1-DIMENSIONS
  6
BYBLOCK
 10
21.21757309406097
 20
10.22424207382265
 30
0.0
  0
POINT
  5
197
  8
A1-DIMENSIONS
  6
BYBLOCK
 10
13.698951582806201
 20
17.724242073822658
 30
0.0
  0
POINT
  5
198
  8
A1-DIMENSIONS
  6
BYBLOCK
 10
22.011383751449738
 20
17.724242073822658
 30
0.0
  0
LINE
  5
19A
  8
A1-DIMENSIONS
  6
BYBLOCK
 10
11.258795199291921
 20
4.3979669322180577
 30
0.0
 11
11.258795199291921
 21
3.621862638411343
 31
0.0
  0
LINE
  5
19B
  8
A1-DIMENSIONS
  6
BYBLOCK
 10
11.258795199291921
 20
6.064040705287967
 30
0.0
 11
11.258795199291921
 21
4.8250492490466677
 31
0.0
  0
LINE
  5
19C
  8
A1-DIMENSIONS
  6
BYBLOCK
 10
11.258795199291921
 20
7.7572787246579287
 30
0.0
 11
11.258795199291921
 21
6.476786336569325
 31
0.0
  0
LINE
  5
19D
  8
A1-DIMENSIONS
  6
BYBLOCK
 10
14.10254519929193
 20
10.097176718448591
 30
0.0
 11
14.10254519929193
 21
7.8028928814278098
 31
0.0
  0
LINE
  5
19E
  8
A1-DIMENSIONS
  6
BYBLOCK
 10
14.91479519929193
 20
10.097176718448591
 30
0.0
 11
14.91479519929192
 21
6.1089002996606263
 31
0.0
  0
LINE
  5
19F
  8
A1-DIMENSIONS
  6
BYBLOCK
 10
11.258795199291921
 20
11.84924207382265
 30
0.0
 11
11.258795199291921
 21
8.5959379609099091
 31
0.0
  0
LINE
  5
1A0
  8
A1-DIMENSIONS
  6
BYBLOCK
 10
8.4150451992919315
 20
11.309758490787059
 30
0.0
 11
8.4150451992919315
 21
8.5959379609099091
 31
0.0
  0
LINE
  5
1A1
  8
A1-DIMENSIONS
  6
BYBLOCK
 10
11.078795199291919
 20
8.7759379609099089
 30
0.0
 11
10.430083164626261
 21
8.7759379609099089
 31
0.0
  0
LINE
  5
1A2
  8
A1-DIMENSIONS
  6
BYBLOCK
 10
8.5950451992919312
 20
8.7759379609099089
 30
0.0
 11
9.4388998373773703
 21
8.7759379609099089
 31
0.0
  0
SOLID
  5
1A3
  8
A1-DIMENSIONS
  6
BYBLOCK
 10
11.078795199291919
 20
8.8059379609099082
 30
0.0
 11
11.078795199291919
 21
8.7459379609099095
 31
0.0
 12
11.258795199291921
 22
8.7759379609099089
 32
0.0
 13
11.258795199291921
 23
8.7759379609099089
 33
0.0
  0
SOLID
  5
1A4
  8
A1-DIMENSIONS
  6
BYBLOCK
 10
8.5950451992919312
 20
8.8059379609099082
 30
0.0
 11
8.5950451992919312
 21
8.7459379609099095
 31
0.0
 12
8.4150451992919315
 22
8.7759379609099089
 32
0.0
 13
8.4150451992919315
 23
8.7759379609099089
 33
0.0
  0
TEXT
  5
1A5
  8
A1-DIMENSIONS
  6
BYBLOCK
 10
9.4963234636014437
 20
8.72236653233848
 30
0.0
 40
0.125
  1
5 11/16
 51
15.0
  7
LEROY
 72
     4
 11
9.9248948921728726
 21
8.7759379609099089
 31
0.0
  0
POINT
  5
1A6
  8
A1-DIMENSIONS
  6
BYBLOCK
 10
11.258795199291921
 20
11.91174207382265
 30
0.0
  0
POINT
  5
1A7
  8
A1-DIMENSIONS
  6
BYBLOCK
 10
8.4150451992919315
 20
8.7759379609099089
 30
0.0
  0
LINE
  5
1A8
  8
A1-DIMENSIONS
  6
BYBLOCK
 10
11.258795199291921
 20
11.84924207382265
 30
0.0
 11
11.258795199291921
 21
8.1398312333236404
 31
0.0
  0
LINE
  5
1A9
  8
A1-DIMENSIONS
  6
BYBLOCK
 10
7.6027951992919247
 20
10.28204450576839
 30
0.0
 11
7.6027951992919247
 21
6.9736288068789749
 31
0.0
  0
LINE
  5
1AA
  8
A1-DIMENSIONS
  6
BYBLOCK
 10
11.078795199291919
 20
7.1536288068789746
 30
0.0
 11
9.8744353346007347
 21
7.1536288068789746
 31
0.0
  0
LINE
  5
1AB
  8
A1-DIMENSIONS
  6
BYBLOCK
 10
7.7827951992919253
 20
7.1536288068789746
 30
0.0
 11
8.9871550639831153
 21
7.1536288068789746
 31
0.0
  0
SOLID
  5
1AC
  8
A1-DIMENSIONS
  6
BYBLOCK
 10
11.078795199291919
 20
7.1836288068789749
 30
0.0
 11
11.078795199291919
 21
7.1236288068789753
 31
0.0
 12
11.258795199291921
 22
7.1536288068789746
 32
0.0
 13
11.258795199291921
 23
7.1536288068789746
 33
0.0
  0
SOLID
  5
1AD
  8
A1-DIMENSIONS
  6
BYBLOCK
 10
7.7827951992919253
 20
7.1836288068789749
 30
0.0
 11
7.7827951992919253
 21
7.1236288068789753
 31
0.0
 12
7.6027951992919247
 22
7.1536288068789746
 32
0.0
 13
7.6027951992919247
 23
7.1536288068789746
 33
0.0
  0
TEXT
  5
1AE
  8
A1-DIMENSIONS
  6
BYBLOCK
 10
9.0617475802443064
 20
7.0911288068789746
 30
0.0
 40
0.125
  1
7 5/16
 51
15.0
  7
LEROY
 72
     1
 11
9.430795199291925
 21
7.1536288068789746
 31
0.0
 73
     2
  0
POINT
  5
1AF
  8
A1-DIMENSIONS
  6
BYBLOCK
 10
11.258795199291921
 20
11.91174207382265
 30
0.0
  0
POINT
  5
1B0
  8
A1-DIMENSIONS
  6
BYBLOCK
 10
7.6027951992919247
 20
10.72424207382265
 30
0.0
  0
POINT
  5
1B1
  8
A1-DIMENSIONS
  6
BYBLOCK
 10
7.6027951992919247
 20
7.1536288068789746
 30
0.0
  0
LINE
  5
1B2
  8
A1-DIMENSIONS
  6
BYBLOCK
 10
11.258795199291921
 20
11.84924207382265
 30
0.0
 11
11.258795199291921
 21
8.1473874840225751
 31
0.0
  0
LINE
  5
1B3
  8
A1-DIMENSIONS
  6
BYBLOCK
 10
5.1027951992919247
 20
10.66174207382265
 30
0.0
 11
5.1027951992919247
 21
5.2796362251117896
 31
0.0
  0
LINE
  5
1B4
  8
A1-DIMENSIONS
  6
BYBLOCK
 10
11.078795199291919
 20
5.4596362251117903
 30
0.0
 11
8.6720543822197822
 21
5.4596362251117903
 31
0.0
  0
LINE
  5
1B5
  8
A1-DIMENSIONS
  6
BYBLOCK
 10
5.2827951992919253
 20
5.4596362251117903
 30
0.0
 11
7.689536016364066
 21
5.4596362251117903
 31
0.0
  0
SOLID
  5
1B6
  8
A1-DIMENSIONS
  6
BYBLOCK
 10
11.078795199291919
 20
5.4896362251117896
 30
0.0
 11
11.078795199291919
 21
5.42963622511179
 31
0.0
 12
11.258795199291921
 22
5.4596362251117903
 32
0.0
 13
11.258795199291921
 23
5.4596362251117903
 33
0.0
  0
SOLID
  5
1B7
  8
A1-DIMENSIONS
  6
BYBLOCK
 10
5.2827951992919253
 20
5.4896362251117896
 30
0.0
 11
5.2827951992919253
 21
5.42963622511179
 31
0.0
 12
5.1027951992919247
 22
5.4596362251117903
 32
0.0
 13
5.1027951992919247
 23
5.4596362251117903
 33
0.0
  0
TEXT
  5
1B8
  8
A1-DIMENSIONS
  6
BYBLOCK
 10
7.743295199291925
 20
5.3971362251117903
 30
0.0
 40
0.125
  1
12 5/16
 51
15.0
  7
LEROY
 72
     1
 11
8.180795199291925
 21
5.4596362251117903
 31
0.0
 73
     2
  0
POINT
  5
1B9
  8
A1-DIMENSIONS
  6
BYBLOCK
 10
11.258795199291921
 20
11.91174207382265
 30
0.0
  0
POINT
  5
1BA
  8
A1-DIMENSIONS
  6
BYBLOCK
 10
5.1027951992919247
 20
10.72424207382265
 30
0.0
  0
POINT
  5
1BB
  8
A1-DIMENSIONS
  6
BYBLOCK
 10
5.1027951992919247
 20
5.4596362251117903
 30
0.0
  0
LINE
  5
1BC
  8
A1-DIMENSIONS
  6
BYBLOCK
 10
11.258795199291921
 20
7.8017979060941247
 30
0.0
 11
11.258795199291921
 21
6.4594314014331813
 31
0.0
  0
LINE
  5
1BD
  8
A1-DIMENSIONS
  6
BYBLOCK
 10
11.258795199291921
 20
6.0987505755602571
 30
0.0
 11
11.258795199291921
 21
5.2796362251117896
 31
0.0
  0
LINE
  5
1BE
  8
A1-DIMENSIONS
  6
BYBLOCK
 10
11.258795199291921
 20
7.7866960314229576
 30
0.0
 11
11.258795199291921
 21
6.9736288068789749
 31
0.0
  0
LINE
  5
1BF
  8
A1-DIMENSIONS
  6
BYBLOCK
 10
4.6027951992919247
 20
10.14924152385702
 30
0.0
 11
4.6027951992919247
 21
3.6218626384113422
 31
0.0
  0
LINE
  5
1C0
  8
A1-DIMENSIONS
  6
BYBLOCK
 10
18.937034578526539
 20
10.22424207382265
 30
0.0
 11
19.812027101263531
 21
10.22424207382265
 31
0.0
  0
LINE
  5
1C1
  8
A1-DIMENSIONS
  6
BYBLOCK
 10
17.477795199291918
 20
13.47424207382265
 30
0.0
 11
19.812027101263531
 21
13.47424207382265
 31
0.0
  0
LINE
  5
1C2
  8
A1-DIMENSIONS
  6
BYBLOCK
 10
19.632027101263539
 20
10.404242073822649
 30
0.0
 11
19.632027101263539
 21
11.69674207382265
 31
0.0
  0
LINE
  5
1C3
  8
A1-DIMENSIONS
  6
BYBLOCK
 10
19.632027101263539
 20
13.29424207382265
 30
0.0
 11
19.632027101263539
 21
12.001742073822649
 31
0.0
  0
SOLID
  5
1C4
  8
A1-DIMENSIONS
  6
BYBLOCK
 10
19.602027101263531
 20
10.404242073822649
 30
0.0
 11
19.66202710126354
 21
10.404242073822649
 31
0.0
 12
19.632027101263539
 22
10.22424207382265
 32
0.0
 13
19.632027101263539
 23
10.22424207382265
 33
0.0
  0
SOLID
  5
1C5
  8
A1-DIMENSIONS
  6
BYBLOCK
 10
19.602027101263531
 20
13.29424207382265
 30
0.0
 11
19.66202710126354
 21
13.29424207382265
 31
0.0
 12
19.632027101263539
 22
13.47424207382265
 32
0.0
 13
19.632027101263539
 23
13.47424207382265
 33
0.0
  0
TEXT
  5
1C6
  8
A1-DIMENSIONS
  6
BYBLOCK
 10
19.319527101263539
 20
11.78674207382265
 30
0.0
 40
0.125
  1
6 1/2
 51
15.0
  7
LEROY
 72
     1
 11
19.632027101263539
 21
11.84924207382265
 31
0.0
 73
     2
  0
POINT
  5
1C7
  8
A1-DIMENSIONS
  6
BYBLOCK
 10
18.874534578526539
 20
10.22424207382265
 30
0.0
  0
POINT
  5
1C8
  8
A1-DIMENSIONS
  6
BYBLOCK
 10
17.415295199291918
 20
13.47424207382265
 30
0.0
  0
POINT
  5
1C9
  8
A1-DIMENSIONS
  6
BYBLOCK
 10
19.632027101263539
 20
13.47424207382265
 30
0.0
  0
LINE
  5
1CA
  8
A1-DIMENSIONS
  6
BYBLOCK
 10
17.477795199291918
 20
10.72424207382265
 30
0.0
 11
19.054534578526539
 21
10.72424207382265
 31
0.0
  0
LINE
  5
1CB
  8
A1-DIMENSIONS
  6
BYBLOCK
 10
17.674998474027959
 20
10.22424207382265
 30
0.0
 11
19.054534578526539
 21
10.22424207382265
 31
0.0
  0
LINE
  5
1CC
  8
A1-DIMENSIONS
  6
BYBLOCK
 10
18.874534578526539
 20
10.904242073822649
 30
0.0
 11
18.874534578526539
 21
11.084242073822651
 31
0.0
  0
LINE
  5
1CD
  8
A1-DIMENSIONS
  6
BYBLOCK
 10
18.874534578526539
 20
10.04424207382265
 30
0.0
 11
18.874534578526539
 21
9.8642420738226555
 31
0.0
  0
SOLID
  5
1CE
  8
A1-DIMENSIONS
  6
BYBLOCK
 10
18.844534578526542
 20
10.904242073822649
 30
0.0
 11
18.90453457852654
 21
10.904242073822649
 31
0.0
 12
18.874534578526539
 22
10.72424207382265
 32
0.0
 13
18.874534578526539
 23
10.72424207382265
 33
0.0
  0
SOLID
  5
1CF
  8
A1-DIMENSIONS
  6
BYBLOCK
 10
18.844534578526542
 20
10.04424207382265
 30
0.0
 11
18.90453457852654
 21
10.04424207382265
 31
0.0
 12
18.874534578526539
 22
10.22424207382265
 32
0.0
 13
18.874534578526539
 23
10.22424207382265
 33
0.0
  0
TEXT
  5
1D0
  8
A1-DIMENSIONS
  6
BYBLOCK
 10
18.513782514552499
 20
10.39709180523214
 30
0.0
 40
0.125
  1
1" TYP
 51
15.0
  7
LEROY
 72
     1
 11
18.86497299074297
 21
10.45959180523214
 31
0.0
 73
     2
  0
POINT
  5
1D1
  8
A1-DIMENSIONS
  6
BYBLOCK
 10
17.415295199291918
 20
10.72424207382265
 30
0.0
  0
POINT
  5
1D2
  8
A1-DIMENSIONS
  6
BYBLOCK
 10
17.415295199291918
 20
10.22424207382265
 30
0.0
  0
POINT
  5
1D3
  8
A1-DIMENSIONS
  6
BYBLOCK
 10
18.874534578526539
 20
10.22424207382265
 30
0.0
  0
LINE
  5
1D4
  8
A1-DIMENSIONS
  6
BYBLOCK
 10
17.915295199291918
 20
10.12886833913198
 30
0.0
 11
17.915295199291918
 21
2.7209151361262558
 31
0.0
  0
TEXT
  5
1D5
  8
A1-NOTES
 10
24.60761154855653
 20
4.6303721505629554
 30
0.0
 40
0.125
  1
MATERIAL:
 51
15.0
  7
LEROY
  0
TEXT
  5
1D6
  8
A1-NOTES
 10
24.60761154855653
 20
4.4279911981820019
 30
0.0
 40
0.125
  1
ASTM A-36 PLATE
 51
15.0
  7
LEROY
  0
TEXT
  5
1D7
  8
A1-NOTES
 10
24.60761154855653
 20
4.2256102458010503
 30
0.0
 40
0.125
  1
3/4 THK x 15" x 26 5/8
 51
15.0
  7
LEROY
  0
SOLID
  5
1DA
  8
A1-DIMENSIONS
 10
4.7789449083941662
 20
17.89297028603481
 30
0.0
 11
4.7226638929289724
 21
17.872174918805388
 31
0.0
 12
4.8131905023498387
 22
17.713729556024521
 32
0.0
 13
4.8131905023498387
 23
17.713729556024521
 33
0.0
  0
LINE
  5
1DB
  8
A1-DIMENSIONS
 10
4.7508044006615693
 20
17.882572602420101
 30
0.0
 11
3.9477812366475762
 21
20.055891237006851
 31
0.0
  0
LINE
  5
1DC
  8
A1-DIMENSIONS
 10
3.9477812366475762
 20
20.055891237006851
 30
0.0
 11
4.2362509918816631
 21
20.055891237006851
 31
0.0
  0
TEXT
  5
1DD
  8
A1-DIMENSIONS
 10
4.2840577938571398
 20
19.993391237006851
 30
0.0
 40
0.125
  1
1" R, TYP (7) PLACES
 51
15.0
  7
LEROY
 72
     1
 11
5.40608160338095
 21
20.055891237006851
 31
0.0
 73
     2
  0
SOLID
  5
1DE
  8
A1-DIMENSIONS
 10
4.8747473532342402
 20
14.35811875475766
 30
0.0
 11
4.8200114187076171
 21
14.333542801642929
 31
0.0
 12
4.9211072453151088
 22
14.181622974620421
 32
0.0
 13
4.9211072453151088
 23
14.181622974620421
 33
0.0
  0
LINE
  5
1DF
  8
A1-DIMENSIONS
 10
4.8473793859709291
 20
14.345830778200289
 30
0.0
 11
4.128334248916393
 21
15.94729898412386
 31
0.0
  0
LINE
  5
1E0
  8
A1-DIMENSIONS
 10
4.128334248916393
 20
15.94729898412386
 30
0.0
 11
3.9114631019958011
 21
15.94729898412386
 31
0.0
  0
TEXT
  5
1E1
  8
A1-DIMENSIONS
 10
1.8076924679450479
 20
15.893727555552431
 30
0.0
 40
0.125
  1
7/8 DIA BURN THRU
 51
15.0
  7
LEROY
 72
     4
 11
2.8195972298498089
 21
15.94729898412386
 31
0.0
  0
TEXT
  5
1E2
  8
A1-DIMENSIONS
 10
2.0820667765364602
 20
15.65301964920662
 30
0.0
 40
0.125
  1
TYP, (7) PLACES
 51
15.0
  7
LEROY
  0
SOLID
  5
1E3
  8
A1-DIMENSIONS
 10
8.5916884312688886
 20
11.63550797726143
 30
0.0
 11
8.6446608775912086
 21
11.663684562054989
 31
0.0
 12
8.5336449000493584
 22
11.808513608625169
 32
0.0
 13
8.5336449000493584
 23
11.808513608625169
 33
0.0
  0
LINE
  5
1E4
  8
A1-DIMENSIONS
 10
8.6181746544300495
 20
11.649596269658209
 30
0.0
 11
8.8314536041938982
 21
11.2486283098852
 31
0.0
  0
LINE
  5
1E5
  8
A1-DIMENSIONS
 10
8.8314536041938982
 20
11.2486283098852
 30
0.0
 11
8.9850274307213969
 21
11.2486283098852
 31
0.0
  0
TEXT
  5
1E6
  8
A1-DIMENSIONS
 10
9.0975129553384484
 20
11.19505688131378
 30
0.0
 40
0.125
  1
3/16 RAD
 50
359.99999999999932
 51
15.0
  7
LEROY
 72
     4
 11
9.5885843839098772
 21
11.2486283098852
 31
0.0
  0
TEXT
  5
1E7
  8
A1-DIMENSIONS
 10
8.8928009177046565
 20
10.960385474145751
 30
0.0
 40
0.125
  1
(TYP 2 PLCS)
 51
15.0
  7
LEROY
  0
LINE
  5
1E8
  8
A1-DIMENSIONS
 10
13.633795199291921
 20
17.224242073822658
 30
0.0
 11
14.73630049494672
 21
16.130920677893659
 31
0.0
  0
LINE
  5
1E9
  8
A1-DIMENSIONS
  6
BYBLOCK
 10
14.514646929033031
 20
16.09446304436808
 30
0.0
 11
14.38335449226035
 21
15.971327768974341
 31
0.0
  0
LINE
  5
1EA
  8
A1-DIMENSIONS
  6
BYBLOCK
 10
15.1648666806849
 20
16.704284829645221
 30
0.0
 11
15.296159117457581
 21
16.82742010503895
 31
0.0
  0
LINE
  5
1EB
  8
A1-DIMENSIONS
  6
BYBLOCK
 10
15.296159117457581
 20
16.82742010503895
 30
0.0
 11
15.476159117457581
 21
16.82742010503895
 31
0.0
  0
SOLID
  5
1EC
  8
A1-DIMENSIONS
  6
BYBLOCK
 10
14.49412438313407
 20
16.116345117163529
 30
0.0
 11
14.53516947493198
 21
16.072580971572631
 31
0.0
 12
14.64593936580571
 22
16.217598319761819
 32
0.0
 13
14.64593936580571
 23
16.217598319761819
 33
0.0
  0
SOLID
  5
1ED
  8
A1-DIMENSIONS
  6
BYBLOCK
 10
15.144344134785941
 20
16.72616690244066
 30
0.0
 11
15.185389226583849
 21
16.682402756849768
 31
0.0
 12
15.03357424391222
 22
16.581149554251478
 32
0.0
 13
15.03357424391222
 23
16.581149554251478
 33
0.0
  0
TEXT
  5
1EE
  8
A1-DIMENSIONS
  6
BYBLOCK
 10
15.52316845159844
 20
16.76492010503895
 30
0.0
 40
0.125
  1
1" TYP
 51
15.0
  7
LEROY
 72
     1
 11
15.87435892778891
 21
16.82742010503895
 31
0.0
 73
     2
  0
POINT
  5
1EF
  8
A1-DIMENSIONS
  6
BYBLOCK
 10
14.99427481779899
 20
16.62305239161206
 30
0.0
  0
POINT
  5
1F0
  8
A1-DIMENSIONS
  6
BYBLOCK
 10
15.03357424391222
 20
16.581149554251478
 30
0.0
  0
TEXT
  5
1F1
  8
A1-DIMENSIONS
 10
11.45629616065426
 20
4.3044011949623213
 30
0.0
 40
0.125
  1
TYP
 51
15.0
  7
LEROY
  0
TEXT
  5
1F2
  8
A1-DIMENSIONS
 10
8.7396996887015952
 20
5.1938720313640481
 30
0.0
 40
0.125
  1
TYP
 51
15.0
  7
LEROY
  0
ARC
  5
1F3
  8
A-LINE-OBJECT
 62
     7
 10
14.35058438470424
 20
11.724242073822641
 30
0.0
 40
0.25
 50
187.18075578145829
 51
270.0
  0
LINE
  5
1F4
  8
A-LINE-OBJECT
 62
     7
 10
14.10254519929193
 20
11.817842073822639
 30
0.0
 11
14.10254519929193
 21
11.692992073822669
 31
0.0
  0
ARC
  5
1F5
  8
A-LINE-OBJECT
 62
     7
 10
14.00879519929193
 20
11.817842073822639
 30
0.0
 40
0.09375
 50
0.0
 51
90.0
  0
ARC
  5
1F6
  8
A-LINE-OBJECT
 62
     7
 10
8.1670060138796217
 20
11.724242073822641
 30
0.0
 40
0.25
 50
270.0
 51
352.8192442185416
  0
ARC
  5
1F7
  8
A-LINE-OBJECT
 62
     7
 10
8.5087951992919315
 20
11.817842073822639
 30
0.0
 40
0.09375
 50
90.0
 51
180.0
  0
LINE
  5
1F8
  8
A-LINE-OBJECT
 62
     7
 10
8.4150451992919315
 20
11.817842073822639
 30
0.0
 11
8.4150451992919315
 21
11.692992073822669
 31
0.0
  0
INSERT
  5
1F9
  8
0
  2
LAYERS2
 10
40.546826158392932
 20
15.53294804656959
 30
0.0
 41
0.5
 42
0.5
 43
0.5
  0
SOLID
  5
1FA
  8
A1-DIMENSIONS
 10
8.2603876714977851
 20
11.710522471944371
 30
0.0
 11
8.2146705981642647
 21
11.67166440706953
 31
0.0
 12
8.3541033294555564
 22
11.553942219506389
 32
0.0
 13
8.3541033294555564
 23
11.553942219506389
 33
0.0
  0
LINE
  5
1FB
  8
A1-DIMENSIONS
 10
8.2375291348310231
 20
11.69109343950695
 30
0.0
 11
7.125
 21
13.0
 31
0.0
  0
LINE
  5
1FC
  8
A1-DIMENSIONS
 10
7.125
 20
13.0
 30
0.0
 11
7.625
 21
13.0
 31
0.0
  0
TEXT
  5
1FD
  8
A1-DIMENSIONS
 10
7.714999999999999
 20
12.9375
 30
0.0
 40
0.125
  1
1/2 RAD
 51
15.0
  7
LEROY
 11
7.714999999999999
 21
13.0
 31
0.0
 73
     2
  0
TEXT
  5
1FE
  8
A1-DIMENSIONS
 10
7.6396319610922587
 20
12.68795816619317
 30
0.0
 40
0.125
  1
(TYP 4 PLCS)
 51
15.0
  7
LEROY
  0
SOLID
  5
1FF
  8
A1-DIMENSIONS
 10
7.618633762424027
 20
11.602922712262121
 30
0.0
 11
7.5616681923318216
 21
11.58408329018844
 31
0.0
 12
7.6466692435989598
 22
11.42260629094867
 32
0.0
 13
7.6466692435989598
 23
11.42260629094867
 33
0.0
  0
LINE
  5
200
  8
A1-DIMENSIONS
 10
7.5901509773779239
 20
11.59350300122528
 30
0.0
 11
7.1250000000000018
 21
13.0
 31
0.0
  0
TEXT
  5
2B0
  8
REV-A
 10
25.75
 20
20.75
 30
0.0
 40
0.125
  1
A
 51
15.0
  7
LEROY
  0
TEXT
  5
2B1
  8
REV-A
 10
26.375
 20
20.874999999999989
 30
0.0
 40
0.125
  1
NEXT ASS'Y'S 007-010-007 & 007-010-008
 51
15.0
  7
LEROY
  0
TEXT
  5
2B2
  8
REV-A
 10
26.375
 20
20.67261904761904
 30
0.0
 40
0.125
  1
ADDED
 51
15.0
  7
LEROY
  0
TEXT
  5
2B3
  8
REV-A
 10
31.25
 20
20.75
 30
0.0
 40
0.125
  1
7/98
 51
15.0
  7
LEROY
  0
TEXT
  5
2B4
  8
REV-A
 10
32.125
 20
20.75
 30
0.0
 40
0.125
  1
dak
 51
15.0
  7
LEROY
  0
LINE
  5
2B5
  8
REV-A
 10
25.375
 20
20.625
 30
0.0
 11
33.5
 21
20.625
 31
0.0
  0
LINE
  5
2CE
  8
A1-DIMENSIONS
 10
5.1027951992919247
 20
10.66174207382265
 30
0.0
 11
5.1027951992919247
 21
4.4511267129601784
 31
0.0
  0
LINE
  5
2CF
  8
A1-DIMENSIONS
 10
17.415295199291918
 20
10.66174207382265
 30
0.0
 11
17.415295199291918
 21
4.4511267129601784
 31
0.0
  0
LINE
  5
2D0
  8
A1-DIMENSIONS
 10
5.2827951992919253
 20
4.6311267129601781
 30
0.0
 11
10.806476492554539
 21
4.6311267129601781
 31
0.0
  0
LINE
  5
2D1
  8
A1-DIMENSIONS
 10
17.235295199291919
 20
4.6311267129601781
 30
0.0
 11
11.711613906029299
 21
4.6311267129601781
 31
0.0
  0
SOLID
  5
2D2
  8
A1-DIMENSIONS
 10
5.2827951992919253
 20
4.6611267129601783
 30
0.0
 11
5.2827951992919253
 21
4.6011267129601778
 31
0.0
 12
5.1027951992919247
 22
4.6311267129601781
 32
0.0
 13
5.1027951992919247
 23
4.6311267129601781
 33
0.0
  0
SOLID
  5
2D3
  8
A1-DIMENSIONS
 10
17.235295199291919
 20
4.6611267129601783
 30
0.0
 11
17.235295199291919
 21
4.6011267129601778
 31
0.0
 12
17.415295199291918
 22
4.6311267129601781
 32
0.0
 13
17.415295199291918
 23
4.6311267129601781
 33
0.0
  0
TEXT
  5
2D4
  8
A1-DIMENSIONS
 10
10.8899975802443
 20
4.5686267129601781
 30
0.0
 40
0.125
  1
24 5/8
 51
15.0
  7
LEROY
 72
     1
 11
11.25904519929192
 21
4.6311267129601781
 31
0.0
 73
     2
  0
ARC
  5
2D5
  8
A1-DIMENSIONS
 10
17.915295199291918
 20
13.66174207382266
 30
0.0
 40
2.7267498367941552
 50
93.782933682751917
 51
107.2823608594138
  0
ARC
  5
2D6
  8
A1-DIMENSIONS
 10
17.915295199291918
 20
13.66174207382266
 30
0.0
 40
2.7267498367941552
 50
117.51324302943461
 51
130.824635607907
  0
SOLID
  5
2D7
  8
A1-DIMENSIONS
 10
17.73440308375757
 20
16.412534425824411
 30
0.0
 11
17.73638346344886
 21
16.352567117261501
 31
0.0
 12
17.915295199291918
 22
16.388491910616811
 32
0.0
 13
17.915295199291918
 23
16.388491910616811
 33
0.0
  0
SOLID
  5
2D8
  8
A1-DIMENSIONS
 10
16.153044302531931
 20
15.703070220027641
 30
0.0
 11
16.112342331489639
 21
15.747153658564949
 31
0.0
 12
16.00044300139885
 22
15.60300602616943
 32
0.0
 13
16.00044300139885
 23
15.60300602616943
 33
0.0
  0
TEXT
  5
2D9
  8
A1-DIMENSIONS
 10
16.73163701330493
 20
16.12198917150139
 30
0.0
 40
0.125
  1
45%%d
 51
15.0
  7
LEROY
 72
     1
 11
16.880446537114452
 21
16.18448917150139
 31
0.0
 73
     2
  0
LINE
  5
2DA
  8
A1-DIMENSIONS
 10
20.4540949459806
 20
10.22424207382265
 30
0.0
 11
21.39757309406097
 21
10.22424207382265
 31
0.0
  0
LINE
  5
2DB
  8
A1-DIMENSIONS
 10
13.696295199291921
 20
17.224242073822658
 30
0.0
 11
21.39757309406097
 21
17.224242073822658
 31
0.0
  0
LINE
  5
2DC
  8
A1-DIMENSIONS
 10
21.21757309406097
 20
10.404242073822649
 30
0.0
 11
21.21757309406097
 21
13.07
 31
0.0
  0
LINE
  5
2DD
  8
A1-DIMENSIONS
 10
21.21757309406097
 20
17.044242073822652
 30
0.0
 11
21.21757309406097
 21
13.429999999999991
 31
0.0
  0
SOLID
  5
2DE
  8
A1-DIMENSIONS
 10
21.187573094060969
 20
10.404242073822649
 30
0.0
 11
21.247573094060971
 21
10.404242073822649
 31
0.0
 12
21.21757309406097
 22
10.22424207382265
 32
0.0
 13
21.21757309406097
 23
10.22424207382265
 33
0.0
  0
SOLID
  5
2DF
  8
A1-DIMENSIONS
 10
21.187573094060969
 20
17.044242073822652
 30
0.0
 11
21.247573094060971
 21
17.044242073822652
 31
0.0
 12
21.21757309406097
 22
17.224242073822658
 32
0.0
 13
21.21757309406097
 23
17.224242073822658
 33
0.0
  0
TEXT
  5
2E0
  8
A1-DIMENSIONS
 10
20.839285714285712
 20
13.1875
 30
0.0
 40
0.125
  1
14" TYP
 51
15.0
  7
LEROY
 72
     1
 11
21.25
 21
13.25
 31
0.0
 73
     2
  0
LINE
  5
2E1
  8
A1-DIMENSIONS
 10
14.94935465116277
 20
11.47424207382265
 30
0.0
 11
16.176062992125971
 21
11.47424207382265
 31
0.0
  0
LINE
  5
2E2
  8
A1-DIMENSIONS
 10
15.69935465116277
 20
10.22424207382265
 30
0.0
 11
16.176062992125971
 21
10.22424207382265
 31
0.0
  0
LINE
  5
2E3
  8
A1-DIMENSIONS
 10
15.996062992125969
 20
11.29424207382265
 30
0.0
 11
15.996062992125969
 21
11.001742073822649
 31
0.0
  0
LINE
  5
2E4
  8
A1-DIMENSIONS
 10
15.996062992125969
 20
10.404242073822649
 30
0.0
 11
15.996062992125969
 21
10.69674207382265
 31
0.0
  0
SOLID
  5
2E5
  8
A1-DIMENSIONS
 10
15.96606299212597
 20
11.29424207382265
 30
0.0
 11
16.026062992125969
 21
11.29424207382265
 31
0.0
 12
15.996062992125969
 22
11.47424207382265
 32
0.0
 13
15.996062992125969
 23
11.47424207382265
 33
0.0
  0
SOLID
  5
2E6
  8
A1-DIMENSIONS
 10
15.96606299212597
 20
10.404242073822649
 30
0.0
 11
16.026062992125969
 21
10.404242073822649
 31
0.0
 12
15.996062992125969
 22
10.22424207382265
 32
0.0
 13
15.996062992125969
 23
10.22424207382265
 33
0.0
  0
TEXT
  5
2E7
  8
A1-DIMENSIONS
 10
15.686539182602161
 20
10.78674207382265
 30
0.0
 40
0.125
  1
2 1/2
 51
15.0
  7
LEROY
 72
     1
 11
15.996062992125969
 21
10.84924207382265
 31
0.0
 73
     2
  0
LINE
  5
2E8
  8
A1-DIMENSIONS
 10
11.258795199291921
 20
17.786742073822651
 30
0.0
 11
11.258795199291921
 21
19.298724739655029
 31
0.0
  0
LINE
  5
2E9
  8
A1-DIMENSIONS
 10
9.3527951992919256
 20
17.286742073822651
 30
0.0
 11
9.3527951992919256
 21
19.298724739655029
 31
0.0
  0
LINE
  5
2EA
  8
A1-DIMENSIONS
 10
11.078795199291919
 20
19.118724739655029
 30
0.0
 11
10.814697844214651
 21
19.118724739655029
 31
0.0
  0
LINE
  5
2EB
  8
A1-DIMENSIONS
 10
9.5327951992919253
 20
19.118724739655029
 30
0.0
 11
9.7968925543691991
 21
19.118724739655029
 31
0.0
  0
SOLID
  5
2EC
  8
A1-DIMENSIONS
 10
11.078795199291919
 20
19.14872473965503
 30
0.0
 11
11.078795199291919
 21
19.088724739655031
 31
0.0
 12
11.258795199291921
 22
19.118724739655029
 32
0.0
 13
11.258795199291921
 23
19.118724739655029
 33
0.0
  0
SOLID
  5
2ED
  8
A1-DIMENSIONS
 10
9.5327951992919253
 20
19.14872473965503
 30
0.0
 11
9.5327951992919253
 21
19.088724739655031
 31
0.0
 12
9.3527951992919256
 22
19.118724739655029
 32
0.0
 13
9.3527951992919256
 23
19.118724739655029
 33
0.0
  0
TEXT
  5
2EE
  8
A1-DIMENSIONS
 10
9.8772237707204962
 20
19.056224739655029
 30
0.0
 40
0.125
  1
3 13/16
 51
15.0
  7
LEROY
 72
     1
 11
10.30579519929192
 21
19.118724739655029
 31
0.0
 73
     2
  0
LINE
  5
2EF
  8
A1-DIMENSIONS
 10
11.258795199291921
 20
17.786742073822651
 30
0.0
 11
11.258795199291921
 21
19.298724739655029
 31
0.0
  0
LINE
  5
2F0
  8
A1-DIMENSIONS
 10
13.633795199291921
 20
17.286742073822651
 30
0.0
 11
13.633795199291921
 21
19.298724739655029
 31
0.0
  0
LINE
  5
2F1
  8
A1-DIMENSIONS
 10
11.438795199291921
 20
19.118724739655029
 30
0.0
 11
12.06079761869996
 21
19.118724739655029
 31
0.0
  0
LINE
  5
2F2
  8
A1-DIMENSIONS
 10
13.453795199291919
 20
19.118724739655029
 30
0.0
 11
12.83179277988388
 21
19.118724739655029
 31
0.0
  0
SOLID
  5
2F3
  8
A1-DIMENSIONS
 10
11.438795199291921
 20
19.14872473965503
 30
0.0
 11
11.438795199291921
 21
19.088724739655031
 31
0.0
 12
11.258795199291921
 22
19.118724739655029
 32
0.0
 13
11.258795199291921
 23
19.118724739655029
 33
0.0
  0
SOLID
  5
2F4
  8
A1-DIMENSIONS
 10
13.453795199291919
 20
19.14872473965503
 30
0.0
 11
13.453795199291919
 21
19.088724739655031
 31
0.0
 12
13.633795199291921
 22
19.118724739655029
 32
0.0
 13
13.633795199291921
 23
19.118724739655029
 33
0.0
  0
TEXT
  5
2F5
  8
A1-DIMENSIONS
 10
12.133795199291921
 20
19.056224739655029
 30
0.0
 40
0.125
  1
4 3/4
 51
15.0
  7
LEROY
 72
     1
 11
12.446295199291921
 21
19.118724739655029
 31
0.0
 73
     2
  0
LINE
  5
2F6
  8
A1-DIMENSIONS
 10
19.694527101263532
 20
10.22424207382265
 30
0.0
 11
20.5715949459806
 21
10.22424207382265
 31
0.0
  0
LINE
  5
2F7
  8
A1-DIMENSIONS
 10
17.977795199291918
 20
13.66174207382266
 30
0.0
 11
20.5715949459806
 21
13.66174207382266
 31
0.0
  0
LINE
  5
2F8
  8
A1-DIMENSIONS
 10
20.3915949459806
 20
10.404242073822649
 30
0.0
 11
20.3915949459806
 21
12.32
 31
0.0
  0
LINE
  5
2F9
  8
A1-DIMENSIONS
 10
20.3915949459806
 20
13.481742073822661
 30
0.0
 11
20.3915949459806
 21
12.68
 31
0.0
  0
SOLID
  5
2FA
  8
A1-DIMENSIONS
 10
20.361594945980588
 20
10.404242073822649
 30
0.0
 11
20.421594945980601
 21
10.404242073822649
 31
0.0
 12
20.3915949459806
 22
10.22424207382265
 32
0.0
 13
20.3915949459806
 23
10.22424207382265
 33
0.0
  0
SOLID
  5
2FB
  8
A1-DIMENSIONS
 10
20.361594945980588
 20
13.481742073822661
 30
0.0
 11
20.421594945980601
 21
13.481742073822661
 31
0.0
 12
20.3915949459806
 22
13.66174207382266
 32
0.0
 13
20.3915949459806
 23
13.66174207382266
 33
0.0
  0
TEXT
  5
2FC
  8
A1-DIMENSIONS
 10
20.0625
 20
12.4375
 30
0.0
 40
0.125
  1
6 7/8
 51
15.0
  7
LEROY
 72
     1
 11
20.375
 21
12.5
 31
0.0
 73
     2
  0
LINE
  5
2FD
  8
A1-DIMENSIONS
 10
26.18253868339136
 20
10.16174207382265
 30
0.0
 11
26.18253868339136
 21
8.6314023935794246
 31
0.0
  0
LINE
  5
2FE
  8
A1-DIMENSIONS
 10
26.55753868339136
 20
10.16174207382265
 30
0.0
 11
26.55753868339136
 21
8.6314023935794246
 31
0.0
  0
LINE
  5
2FF
  8
A1-DIMENSIONS
 10
26.002538683391361
 20
8.8114023935794243
 30
0.0
 11
25.822538683391372
 21
8.8114023935794243
 31
0.0
  0
LINE
  5
300
  8
A1-DIMENSIONS
 10
26.737538683391371
 20
8.8114023935794243
 30
0.0
 11
26.91753868339136
 21
8.8114023935794243
 31
0.0
  0
SOLID
  5
301
  8
A1-DIMENSIONS
 10
26.002538683391361
 20
8.8414023935794237
 30
0.0
 11
26.002538683391361
 21
8.7814023935794232
 31
0.0
 12
26.18253868339136
 22
8.8114023935794243
 32
0.0
 13
26.18253868339136
 23
8.8114023935794243
 33
0.0
  0
SOLID
  5
302
  8
A1-DIMENSIONS
 10
26.737538683391371
 20
8.8414023935794237
 30
0.0
 11
26.737538683391371
 21
8.7814023935794232
 31
0.0
 12
26.55753868339136
 22
8.8114023935794243
 32
0.0
 13
26.55753868339136
 23
8.8114023935794243
 33
0.0
  0
TEXT
  5
303
  8
A1-DIMENSIONS
 10
27.003238493722701
 20
8.7489023935794243
 30
0.0
 40
0.125
  1
3/4 REF
 51
15.0
  7
LEROY
 72
     1
 11
27.425857541341749
 21
8.8114023935794243
 31
0.0
 73
     2
  0
TEXT
  5
30B
  8
A-LINE-OBJECT
 10
22.330487746414558
 20
2.8870870880116248
 30
0.0
 40
0.375
  1
USED ON MOHAWK MODEL A-7
  7
LABEL
  0
ENDSEC
  0
EOF
