  0
SECTION
  2
HEADER
  9
$ACADVER
  1
AC1009
  9
$INSBASE
 10
0.0
 20
0.0
 30
0.0
  9
$EXTMIN
 10
-0.0003354577220165
 20
-0.000259217330651
 30
-0.0000000000112498
  9
$EXTMAX
 10
22.000335765077221
 20
17.000259454832388
 30
0.0000000000002956
  9
$LIMMIN
 10
0.0
 20
0.0
  9
$LIMMAX
 10
22.0
 20
17.0
  9
$ORTHOMODE
 70
     0
  9
$REGENMODE
 70
     1
  9
$FILLMODE
 70
     1
  9
$QTEXTMODE
 70
     0
  9
$MIRRTEXT
 70
     1
  9
$DRAGMODE
 70
     2
  9
$LTSCALE
 40
1.0
  9
$OSMODE
 70
     0
  9
$ATTMODE
 70
     1
  9
$TEXTSIZE
 40
0.125
  9
$TRACEWID
 40
0.05
  9
$TEXTSTYLE
  7
LEROY
  9
$CLAYER
  8
A1-BORDER-LABELS
  9
$CELTYPE
  6
BYLAYER
  9
$CECOLOR
 62
   256
  9
$DIMSCALE
 40
1.0
  9
$DIMASZ
 40
0.18
  9
$DIMEXO
 40
0.0625
  9
$DIMDLI
 40
0.38
  9
$DIMRND
 40
0.0
  9
$DIMDLE
 40
0.0
  9
$DIMEXE
 40
0.18
  9
$DIMTP
 40
0.0
  9
$DIMTM
 40
0.0
  9
$DIMTXT
 40
0.18
  9
$DIMCEN
 40
0.09
  9
$DIMTSZ
 40
0.0
  9
$DIMTOL
 70
     0
  9
$DIMLIM
 70
     0
  9
$DIMTIH
 70
     1
  9
$DIMTOH
 70
     1
  9
$DIMSE1
 70
     0
  9
$DIMSE2
 70
     0
  9
$DIMTAD
 70
     0
  9
$DIMZIN
 70
     0
  9
$DIMBLK
  1

  9
$DIMASO
 70
     1
  9
$DIMSHO
 70
     1
  9
$DIMPOST
  1

  9
$DIMAPOST
  1

  9
$DIMALT
 70
     0
  9
$DIMALTD
 70
     2
  9
$DIMALTF
 40
25.399999999999999
  9
$DIMLFAC
 40
2.0
  9
$DIMTOFL
 70
     0
  9
$DIMTVP
 40
0.0
  9
$DIMTIX
 70
     0
  9
$DIMSOXD
 70
     0
  9
$DIMSAH
 70
     0
  9
$DIMBLK1
  1

  9
$DIMBLK2
  1

  9
$DIMSTYLE
  2
STANDARD
  9
$DIMCLRD
 70
     0
  9
$DIMCLRE
 70
     0
  9
$DIMCLRT
 70
     0
  9
$DIMTFAC
 40
1.0
  9
$DIMGAP
 40
0.09
  9
$LUNITS
 70
     5
  9
$LUPREC
 70
     5
  9
$SKETCHINC
 40
0.1
  9
$FILLETRAD
 40
0.0
  9
$AUNITS
 70
     0
  9
$AUPREC
 70
     0
  9
$MENU
  1
acad
  9
$ELEVATION
 40
0.0
  9
$PELEVATION
 40
0.0
  9
$THICKNESS
 40
0.0
  9
$LIMCHECK
 70
     0
  9
$BLIPMODE
 70
     0
  9
$CHAMFERA
 40
0.0
  9
$CHAMFERB
 40
0.0
  9
$SKPOLY
 70
     0
  9
$TDCREATE
 40
2448901.4144680551
  9
$TDUPDATE
 40
2451935.5781091428
  9
$TDINDWG
 40
0.171230787
  9
$TDUSRTIMER
 40
0.171230787
  9
$USRTIMER
 70
     1
  9
$ANGBASE
 50
0.0
  9
$ANGDIR
 70
     0
  9
$PDMODE
 70
     0
  9
$PDSIZE
 40
0.0
  9
$PLINEWID
 40
0.0
  9
$COORDS
 70
     2
  9
$SPLFRAME
 70
     0
  9
$SPLINETYPE
 70
     6
  9
$SPLINESEGS
 70
     8
  9
$ATTDIA
 70
     0
  9
$ATTREQ
 70
     1
  9
$HANDLING
 70
 12289
  9
$HANDSEED
  5
8D5
  9
$SURFTAB1
 70
     6
  9
$SURFTAB2
 70
     6
  9
$SURFTYPE
 70
     6
  9
$SURFU
 70
     6
  9
$SURFV
 70
     6
  9
$UCSNAME
  2

  9
$UCSORG
 10
0.0
 20
0.0
 30
0.0
  9
$UCSXDIR
 10
1.0
 20
0.0
 30
0.0
  9
$UCSYDIR
 10
0.0
 20
1.0
 30
0.0
  9
$PUCSNAME
  2

  9
$PUCSORG
 10
0.0
 20
0.0
 30
0.0
  9
$PUCSXDIR
 10
1.0
 20
0.0
 30
0.0
  9
$PUCSYDIR
 10
0.0
 20
1.0
 30
0.0
  9
$USERI1
 70
     0
  9
$USERI2
 70
     0
  9
$USERI3
 70
     0
  9
$USERI4
 70
     0
  9
$USERI5
 70
     0
  9
$USERR1
 40
0.0
  9
$USERR2
 40
0.0
  9
$USERR3
 40
0.0
  9
$USERR4
 40
0.0
  9
$USERR5
 40
0.0
  9
$WORLDVIEW
 70
     1
  9
$SHADEDGE
 70
     3
  9
$SHADEDIF
 70
    70
  9
$TILEMODE
 70
     1
  9
$MAXACTVP
 70
    16
  9
$PLIMCHECK
 70
     0
  9
$PEXTMIN
 10
1.0000000000000000E+020
 20
1.0000000000000000E+020
 30
1.0000000000000000E+020
  9
$PEXTMAX
 10
-1.0000000000000000E+020
 20
-1.0000000000000000E+020
 30
-1.0000000000000000E+020
  9
$PLIMMIN
 10
0.0
 20
0.0
  9
$PLIMMAX
 10
12.0
 20
9.0
  9
$UNITMODE
 70
     0
  9
$VISRETAIN
 70
     0
  9
$PLINEGEN
 70
     0
  9
$PSLTSCALE
 70
     0
  0
ENDSEC
  0
SECTION
  2
TABLES
  0
TABLE
  2
VPORT
 70
     2
  0
VPORT
  2
*ACTIVE
 70
     0
 10
0.0
 20
0.0
 11
1.0
 21
1.0
 12
11.0000001536776
 22
8.5000001187508722
 13
0.0
 23
0.0
 14
0.125
 24
0.125
 15
0.0
 25
0.0
 16
0.0
 26
0.0
 36
1.0
 17
0.0
 27
0.0
 37
0.0
 40
17.182018871509982
 41
1.787878787878787
 42
50.0
 43
0.0
 44
0.0
 50
0.0
 51
0.0
 71
     0
 72
   100
 73
     1
 74
     0
 75
     0
 76
     0
 77
     0
 78
     0
  0
ENDTAB
  0
TABLE
  2
LTYPE
 70
    49
  0
LTYPE
  2
CONTINUOUS
 70
     0
  3
Solid line
 72
    65
 73
     0
 40
0.0
  0
LTYPE
  2
CENTER
 70
     0
  3
____ _ ____ _ ____ _ ____ _ ____ _ ____ _ ____ 
 72
    65
 73
     4
 40
2.0
 49
1.25
 49
-0.25
 49
0.25
 49
-0.25
  0
LTYPE
  2
HIDDEN2
 70
     0
  3
_ _ _ _ _ _ _ _ _ _ _ _ _ _ _ _ _ _ _ _ _ _ _ _
 72
    65
 73
     2
 40
0.1875
 49
0.125
 49
-0.0625
  0
LTYPE
  2
PHANTOM2
 70
     0
  3
___ _ _ ___ _ _ ___ _ _ ___ _ _ ___ _ _ ___ _ _
 72
    65
 73
     6
 40
1.25
 49
0.625
 49
-0.125
 49
0.125
 49
-0.125
 49
0.125
 49
-0.125
  0
LTYPE
  2
BORDER
 70
     0
  3
__ __ . __ __ . __ __ . __ __ . __ __ . __ __ .
 72
    65
 73
     6
 40
1.75
 49
0.5
 49
-0.25
 49
0.5
 49
-0.25
 49
0.0
 49
-0.25
  0
LTYPE
  2
BORDER2
 70
     0
  3
__.__.__.__.__.__.__.__.__.__.__.__.__.__.__.__
 72
    65
 73
     6
 40
0.875
 49
0.25
 49
-0.125
 49
0.25
 49
-0.125
 49
0.0
 49
-0.125
  0
LTYPE
  2
BORDERX2
 70
     0
  3
____  ____  .  ____  ____  .  ____  ____  .  __
 72
    65
 73
     6
 40
3.5
 49
1.0
 49
-0.5
 49
1.0
 49
-0.5
 49
0.0
 49
-0.5
  0
LTYPE
  2
CENTER2
 70
     0
  3
___ _ ___ _ ___ _ ___ _ ___ _ ___ _ ___ _ ___ _
 72
    65
 73
     4
 40
1.125
 49
0.75
 49
-0.125
 49
0.125
 49
-0.125
  0
LTYPE
  2
CENTERX2
 70
     0
  3
________  __  ________  __  ________  __  _____
 72
    65
 73
     4
 40
4.0
 49
2.5
 49
-0.5
 49
0.5
 49
-0.5
  0
LTYPE
  2
DASHDOT
 70
     0
  3
__ . __ . __ . __ . __ . __ . __ . __ . __ . __
 72
    65
 73
     4
 40
1.0
 49
0.5
 49
-0.25
 49
0.0
 49
-0.25
  0
LTYPE
  2
DASHDOT2
 70
     0
  3
_._._._._._._._._._._._._._._._._._._._._._._._
 72
    65
 73
     4
 40
0.5
 49
0.25
 49
-0.125
 49
0.0
 49
-0.125
  0
LTYPE
  2
DASHDOTX2
 70
     0
  3
____  .  ____  .  ____  .  ____  .  ____  .  __
 72
    65
 73
     4
 40
2.0
 49
1.0
 49
-0.5
 49
0.0
 49
-0.5
  0
LTYPE
  2
DASHED
 70
     0
  3
__ __ __ __ __ __ __ __ __ __ __ __ __ __ __ __
 72
    65
 73
     2
 40
0.75
 49
0.5
 49
-0.25
  0
LTYPE
  2
DASHED2
 70
     0
  3
_ _ _ _ _ _ _ _ _ _ _ _ _ _ _ _ _ _ _ _ _ _ _ _
 72
    65
 73
     2
 40
0.375
 49
0.25
 49
-0.125
  0
LTYPE
  2
DASHEDX2
 70
     0
  3
____  ____  ____  ____  ____  ____  ____  ____ 
 72
    65
 73
     2
 40
1.5
 49
1.0
 49
-0.5
  0
LTYPE
  2
DIVIDE
 70
     0
  3
____ . . ____ . . ____ . . ____ . . ____ . . __
 72
    65
 73
     6
 40
1.25
 49
0.5
 49
-0.25
 49
0.0
 49
-0.25
 49
0.0
 49
-0.25
  0
LTYPE
  2
DIVIDE2
 70
     0
  3
__..__..__..__..__..__..__..__..__..__..__..__.
 72
    65
 73
     6
 40
0.625
 49
0.25
 49
-0.125
 49
0.0
 49
-0.125
 49
0.0
 49
-0.125
  0
LTYPE
  2
DIVIDEX2
 70
     0
  3
________  .  .  ________  .  .  ________  .  . 
 72
    65
 73
     6
 40
2.5
 49
1.0
 49
-0.5
 49
0.0
 49
-0.5
 49
0.0
 49
-0.5
  0
LTYPE
  2
DOT
 70
     0
  3
. . . . . . . . . . . . . . . . . . . . . . . .
 72
    65
 73
     2
 40
0.25
 49
0.0
 49
-0.25
  0
LTYPE
  2
DOT2
 70
     0
  3
...............................................
 72
    65
 73
     2
 40
0.125
 49
0.0
 49
-0.125
  0
LTYPE
  2
DOTX2
 70
     0
  3
.  .  .  .  .  .  .  .  .  .  .  .  .  .  .  . 
 72
    65
 73
     2
 40
0.5
 49
0.0
 49
-0.5
  0
LTYPE
  2
HIDDEN
 70
     0
  3
__ __ __ __ __ __ __ __ __ __ __ __ __ __ __ __
 72
    65
 73
     2
 40
0.375
 49
0.25
 49
-0.125
  0
LTYPE
  2
HIDDENX2
 70
     0
  3
____ ____ ____ ____ ____ ____ ____ ____ ____ __
 72
    65
 73
     2
 40
0.75
 49
0.5
 49
-0.25
  0
LTYPE
  2
PHANTOM
 70
     0
  3
______  __  __  ______  __  __  ______  __  __ 
 72
    65
 73
     6
 40
2.5
 49
1.25
 49
-0.25
 49
0.25
 49
-0.25
 49
0.25
 49
-0.25
  0
LTYPE
  2
PHANTOMX2
 70
     0
  3
____________    ____    ____    ____________   
 72
    65
 73
     6
 40
5.0
 49
2.5
 49
-0.5
 49
0.5
 49
-0.5
 49
0.5
 49
-0.5
  0
LTYPE
  2
MOHAWK$0$BORDER
 70
     0
  3
__ __ . __ __ . __ __ . __ __ . __ __ . __ __ .
 72
    65
 73
     6
 40
1.75
 49
0.5
 49
-0.25
 49
0.5
 49
-0.25
 49
0.0
 49
-0.25
  0
LTYPE
  2
MOHAWK$0$BORDER2
 70
     0
  3
__.__.__.__.__.__.__.__.__.__.__.__.__.__.__.__
 72
    65
 73
     6
 40
0.875
 49
0.25
 49
-0.125
 49
0.25
 49
-0.125
 49
0.0
 49
-0.125
  0
LTYPE
  2
MOHAWK$0$BORDERX2
 70
     0
  3
____  ____  .  ____  ____  .  ____  ____  .  __
 72
    65
 73
     6
 40
3.5
 49
1.0
 49
-0.5
 49
1.0
 49
-0.5
 49
0.0
 49
-0.5
  0
LTYPE
  2
MOHAWK$0$CENTER
 70
     0
  3
____ _ ____ _ ____ _ ____ _ ____ _ ____ _ ____ 
 72
    65
 73
     4
 40
2.0
 49
1.25
 49
-0.25
 49
0.25
 49
-0.25
  0
LTYPE
  2
MOHAWK$0$CENTER2
 70
     0
  3
___ _ ___ _ ___ _ ___ _ ___ _ ___ _ ___ _ ___ _
 72
    65
 73
     4
 40
1.125
 49
0.75
 49
-0.125
 49
0.125
 49
-0.125
  0
LTYPE
  2
MOHAWK$0$CENTERX2
 70
     0
  3
________  __  ________  __  ________  __  _____
 72
    65
 73
     4
 40
4.0
 49
2.5
 49
-0.5
 49
0.5
 49
-0.5
  0
LTYPE
  2
MOHAWK$0$DASHDOT
 70
     0
  3
__ . __ . __ . __ . __ . __ . __ . __ . __ . __
 72
    65
 73
     4
 40
1.0
 49
0.5
 49
-0.25
 49
0.0
 49
-0.25
  0
LTYPE
  2
MOHAWK$0$DASHDOT2
 70
     0
  3
_._._._._._._._._._._._._._._._._._._._._._._._
 72
    65
 73
     4
 40
0.5
 49
0.25
 49
-0.125
 49
0.0
 49
-0.125
  0
LTYPE
  2
MOHAWK$0$DASHDOTX2
 70
     0
  3
____  .  ____  .  ____  .  ____  .  ____  .  __
 72
    65
 73
     4
 40
2.0
 49
1.0
 49
-0.5
 49
0.0
 49
-0.5
  0
LTYPE
  2
MOHAWK$0$DASHED
 70
     0
  3
__ __ __ __ __ __ __ __ __ __ __ __ __ __ __ __
 72
    65
 73
     2
 40
0.75
 49
0.5
 49
-0.25
  0
LTYPE
  2
MOHAWK$0$DASHED2
 70
     0
  3
_ _ _ _ _ _ _ _ _ _ _ _ _ _ _ _ _ _ _ _ _ _ _ _
 72
    65
 73
     2
 40
0.375
 49
0.25
 49
-0.125
  0
LTYPE
  2
MOHAWK$0$DASHEDX2
 70
     0
  3
____  ____  ____  ____  ____  ____  ____  ____ 
 72
    65
 73
     2
 40
1.5
 49
1.0
 49
-0.5
  0
LTYPE
  2
MOHAWK$0$DIVIDE
 70
     0
  3
____ . . ____ . . ____ . . ____ . . ____ . . __
 72
    65
 73
     6
 40
1.25
 49
0.5
 49
-0.25
 49
0.0
 49
-0.25
 49
0.0
 49
-0.25
  0
LTYPE
  2
MOHAWK$0$DIVIDE2
 70
     0
  3
__..__..__..__..__..__..__..__..__..__..__..__.
 72
    65
 73
     6
 40
0.625
 49
0.25
 49
-0.125
 49
0.0
 49
-0.125
 49
0.0
 49
-0.125
  0
LTYPE
  2
MOHAWK$0$DIVIDEX2
 70
     0
  3
________  .  .  ________  .  .  ________  .  . 
 72
    65
 73
     6
 40
2.5
 49
1.0
 49
-0.5
 49
0.0
 49
-0.5
 49
0.0
 49
-0.5
  0
LTYPE
  2
MOHAWK$0$DOT
 70
     0
  3
. . . . . . . . . . . . . . . . . . . . . . . .
 72
    65
 73
     2
 40
0.25
 49
0.0
 49
-0.25
  0
LTYPE
  2
MOHAWK$0$DOT2
 70
     0
  3
...............................................
 72
    65
 73
     2
 40
0.125
 49
0.0
 49
-0.125
  0
LTYPE
  2
MOHAWK$0$DOTX2
 70
     0
  3
.  .  .  .  .  .  .  .  .  .  .  .  .  .  .  . 
 72
    65
 73
     2
 40
0.5
 49
0.0
 49
-0.5
  0
LTYPE
  2
MOHAWK$0$HIDDEN
 70
     0
  3
__ __ __ __ __ __ __ __ __ __ __ __ __ __ __ __
 72
    65
 73
     2
 40
0.375
 49
0.25
 49
-0.125
  0
LTYPE
  2
MOHAWK$0$HIDDEN2
 70
     0
  3
_ _ _ _ _ _ _ _ _ _ _ _ _ _ _ _ _ _ _ _ _ _ _ _
 72
    65
 73
     2
 40
0.1875
 49
0.125
 49
-0.0625
  0
LTYPE
  2
MOHAWK$0$HIDDENX2
 70
     0
  3
____ ____ ____ ____ ____ ____ ____ ____ ____ __
 72
    65
 73
     2
 40
0.75
 49
0.5
 49
-0.25
  0
LTYPE
  2
MOHAWK$0$PHANTOM
 70
     0
  3
______  __  __  ______  __  __  ______  __  __ 
 72
    65
 73
     6
 40
2.5
 49
1.25
 49
-0.25
 49
0.25
 49
-0.25
 49
0.25
 49
-0.25
  0
LTYPE
  2
MOHAWK$0$PHANTOM2
 70
     0
  3
___ _ _ ___ _ _ ___ _ _ ___ _ _ ___ _ _ ___ _ _
 72
    65
 73
     6
 40
1.25
 49
0.625
 49
-0.125
 49
0.125
 49
-0.125
 49
0.125
 49
-0.125
  0
LTYPE
  2
MOHAWK$0$PHANTOMX2
 70
     0
  3
____________    ____    ____    ____________   
 72
    65
 73
     6
 40
5.0
 49
2.5
 49
-0.5
 49
0.5
 49
-0.5
 49
0.5
 49
-0.5
  0
ENDTAB
  0
TABLE
  2
LAYER
 70
     9
  0
LAYER
  2
0
 70
     0
 62
     7
  6
CONTINUOUS
  0
LAYER
  2
A1-BORDER-LABELS
 70
     0
 62
     6
  6
CONTINUOUS
  0
LAYER
  2
A1-DIMENSIONS
 70
     0
 62
     1
  6
CONTINUOUS
  0
LAYER
  2
A-LINE-CENTER
 70
     0
 62
     5
  6
CENTER
  0
LAYER
  2
A-LINE-HIDDEN
 70
     0
 62
     3
  6
HIDDEN
  0
LAYER
  2
A1-NOTES
 70
     0
 62
     4
  6
CONTINUOUS
  0
LAYER
  2
A-LINE-OBJECT
 70
     0
 62
     7
  6
CONTINUOUS
  0
LAYER
  2
DEFPOINTS
 70
     0
 62
     7
  6
CONTINUOUS
  0
LAYER
  2
REV-A
 70
     0
 62
     6
  6
CONTINUOUS
  0
ENDTAB
  0
TABLE
  2
STYLE
 70
    12
  0
STYLE
  2
STANDARD
 70
     0
 40
0.0
 41
1.0
 50
0.0
 71
     0
 42
0.2
  3
txt
  4

  0
STYLE
  2
LEROY
 70
     0
 40
0.125
 41
1.0
 50
15.0
 71
     0
 42
0.125
  3
ROMAND
  4

  0
STYLE
  2
LABEL
 70
     0
 40
0.25
 41
1.0
 50
0.0
 71
     0
 42
0.25
  3
txt
  4

  0
STYLE
  2
CS$0$STANDARD
 70
     0
 40
0.0
 41
1.0
 50
0.0
 71
     0
 42
0.125
  3
ROMANT
  4

  0
STYLE
  2
MOHAWK$0$STANDARD
 70
     0
 40
0.09375
 41
1.0
 50
0.0
 71
     0
 42
0.09375
  3
ROMANT
  4

  0
STYLE
  2
MOHAWK$0$LEROY
 70
     0
 40
0.125
 41
1.0
 50
15.0
 71
     0
 42
0.125
  3
ROMAND
  4

  0
STYLE
  2
MOHAWK$0$MOHAWK
 70
     0
 40
0.25
 41
1.0
 50
0.0
 71
     0
 42
0.25
  3
ROMANT
  4

  0
STYLE
  2
MOHAWK$0$STANDARD2
 70
     0
 40
0.25
 41
0.8
 50
0.0
 71
     0
 42
0.25
  3
SASB____.PFB
  4

  0
STYLE
  2
REV$0$STANDARD
 70
     0
 40
0.09375
 41
1.0
 50
0.0
 71
     0
 42
0.09375
  3
ROMANT
  4

  0
STYLE
  2
CONF$0$STANDARD
 70
     0
 40
0.0
 41
1.0
 50
0.0
 71
     0
 42
0.2
  3
txt
  4

  0
STYLE
  2
CONF$0$LEROY
 70
     0
 40
0.125
 41
1.0
 50
15.0
 71
     0
 42
0.125
  3
ROMAND
  4

  0
STYLE
  2
CONF$0$LEROY2
 70
     0
 40
0.011
 41
1.0
 50
0.0
 71
     0
 42
0.0625
  3
ROMAND
  4

  0
ENDTAB
  0
TABLE
  2
VIEW
 70
     0
  0
ENDTAB
  0
TABLE
  2
UCS
 70
     0
  0
ENDTAB
  0
TABLE
  2
APPID
 70
     1
  0
APPID
  2
ACAD
 70
     0
  0
ENDTAB
  0
TABLE
  2
DIMSTYLE
 70
     5
  0
DIMSTYLE
  2
STANDARD
 70
     0
  3

  4

  5

  6

  7

 40
1.0
 41
0.18
 42
0.0625
 43
0.38
 44
0.18
 45
0.0
 46
0.0
 47
0.0
 48
0.0
140
0.18
141
0.09
142
0.0
143
25.399999999999999
144
1.0
145
0.0
146
1.0
147
0.09
 71
     0
 72
     0
 73
     1
 74
     1
 75
     0
 76
     0
 77
     0
 78
     0
170
     0
171
     2
172
     0
173
     0
174
     0
175
     0
176
     0
177
     0
178
     0
  0
DIMSTYLE
  2
CS$0$STANDARD
 70
     0
  3

  4

  5

  6

  7

 40
1.0
 41
0.18
 42
0.0625
 43
0.38
 44
0.18
 45
0.0
 46
0.0
 47
0.0
 48
0.0
140
0.18
141
0.09
142
0.0
143
25.399999999999999
144
1.0
145
0.0
146
1.0
147
0.09
 71
     0
 72
     0
 73
     1
 74
     1
 75
     0
 76
     0
 77
     0
 78
     0
170
     0
171
     2
172
     0
173
     0
174
     0
175
     0
176
     0
177
     0
178
     0
  0
DIMSTYLE
  2
MOHAWK$0$STANDARD
 70
     0
  3

  4

  5

  6

  7

 40
1.0
 41
0.18
 42
0.0625
 43
0.38
 44
0.18
 45
0.0
 46
0.0
 47
0.0
 48
0.0
140
0.18
141
0.09
142
0.0
143
25.399999999999999
144
1.0
145
0.0
146
1.0
147
0.09
 71
     0
 72
     0
 73
     1
 74
     1
 75
     0
 76
     0
 77
     0
 78
     0
170
     0
171
     2
172
     0
173
     0
174
     0
175
     0
176
     0
177
     0
178
     0
  0
DIMSTYLE
  2
REV$0$STANDARD
 70
     0
  3

  4

  5

  6

  7

 40
1.0
 41
0.18
 42
0.0625
 43
0.38
 44
0.18
 45
0.0
 46
0.0
 47
0.0
 48
0.0
140
0.18
141
0.09
142
0.0
143
25.399999999999999
144
1.0
145
0.0
146
1.0
147
0.09
 71
     0
 72
     0
 73
     1
 74
     1
 75
     0
 76
     0
 77
     0
 78
     0
170
     0
171
     2
172
     0
173
     0
174
     0
175
     0
176
     0
177
     0
178
     0
  0
DIMSTYLE
  2
CONF$0$STANDARD
 70
     0
  3

  4

  5

  6

  7

 40
1.0
 41
0.18
 42
0.0625
 43
0.38
 44
0.18
 45
0.0
 46
0.0
 47
0.0
 48
0.0
140
0.18
141
0.09
142
0.0
143
25.399999999999999
144
1.0
145
0.0
146
1.0
147
0.09
 71
     0
 72
     0
 73
     1
 74
     1
 75
     0
 76
     0
 77
     0
 78
     0
170
     0
171
     2
172
     0
173
     0
174
     0
175
     0
176
     0
177
     0
178
     0
  0
ENDTAB
  0
ENDSEC
  0
SECTION
  2
BLOCKS
  0
BLOCK
  8
0
  2
$MODEL_SPACE
 70
     0
 10
0.0
 20
0.0
 30
0.0
  3
$MODEL_SPACE
  1

  0
ENDBLK
  5
68E
  8
0
  0
BLOCK
 67
     1
  8
0
  2
$PAPER_SPACE
 70
     0
 10
0.0
 20
0.0
 30
0.0
  3
$PAPER_SPACE
  1

  0
ENDBLK
  5
68A
 67
     1
  8
0
  0
BLOCK
  8
0
  2
LAYERS
 70
     0
 10
0.0
 20
0.0
 30
0.0
  3
LAYERS
  1

  0
ENDBLK
  5
6E5
  8
0
  0
BLOCK
  8
0
 62
     7
  2
CS
 70
     0
 10
0.0
 20
0.0
 30
0.0
  3
CS
  1
CS
  0
POLYLINE
  5
6E8
  8
0
 66
     1
 10
0.0
 20
0.0
 30
0.0
 40
0.0625
 41
0.0625
  0
VERTEX
  5
875
  8
0
 10
0.5
 20
0.5
 30
0.0
  0
VERTEX
  5
876
  8
0
 10
21.499999999999989
 20
0.5
 30
0.0
  0
VERTEX
  5
877
  8
0
 10
21.499999999999989
 20
16.5
 30
0.0
  0
VERTEX
  5
878
  8
0
 10
0.5
 20
16.5
 30
0.0
  0
VERTEX
  5
879
  8
0
 10
0.5
 20
0.5
 30
0.0
  0
SEQEND
  5
87A
  8
0
  0
INSERT
  5
6F0
  8
0
  2
MOHAWK
 10
21.499999999999989
 20
0.5
 30
0.0
  0
INSERT
  5
6F2
  8
0
  2
REV
 10
21.499999999999989
 20
16.5
 30
0.0
  0
INSERT
  5
6F4
  8
0
  2
CONF
 10
1.0
 20
1.0
 30
0.0
  0
TEXT
  5
6F5
  8
0
 10
0.625
 20
2.125
 30
0.0
 40
0.25
  1
C
  7
CS$0$STANDARD
  0
TEXT
  5
6F6
  8
0
 10
0.875
 20
2.125
 30
0.0
 40
0.125
  1
-SIZE
  7
CS$0$STANDARD
  0
LINE
  5
6F7
  8
0
 10
0.0
 20
0.5
 30
0.0
 11
0.0
 21
0.0
 31
0.0
  0
LINE
  5
6F8
  8
0
 10
0.0
 20
0.0
 30
0.0
 11
0.5
 21
0.0
 31
0.0
  0
LINE
  5
6F9
  8
0
 10
21.499999999999989
 20
0.0
 30
0.0
 11
22.0
 21
0.0
 31
0.0
  0
LINE
  5
6FA
  8
0
 10
22.0
 20
0.0
 30
0.0
 11
22.0
 21
0.5
 31
0.0
  0
LINE
  5
6FB
  8
0
 10
22.0
 20
16.5
 30
0.0
 11
22.0
 21
17.0
 31
0.0
  0
LINE
  5
6FC
  8
0
 10
22.0
 20
17.0
 30
0.0
 11
21.499999999999989
 21
17.0
 31
0.0
  0
LINE
  5
6FD
  8
0
 10
0.5
 20
17.0
 30
0.0
 11
0.0
 21
17.0
 31
0.0
  0
LINE
  5
6FE
  8
0
 10
0.0
 20
17.0
 30
0.0
 11
0.0
 21
16.5
 31
0.0
  0
ENDBLK
  5
6FF
  8
0
 62
     7
  0
BLOCK
  8
0
  2
MOHAWK
 70
     0
 10
17.0
 20
3.0
 30
0.0
  3
MOHAWK
  1
MOHAWK
  0
POLYLINE
  5
719
  8
0
 66
     1
 10
0.0
 20
0.0
 30
0.0
 40
0.03125
 41
0.03125
  0
VERTEX
  5
87B
  8
0
 10
17.0
 20
3.0
 30
0.0
  0
VERTEX
  5
87C
  8
0
 10
17.0
 20
4.5
 30
0.0
  0
SEQEND
  5
87D
  8
0
  0
TEXT
  5
71D
  8
0
 10
1.125
 20
4.3125
 30
0.0
 40
0.09375
  1
NOTES:
  7
MOHAWK$0$STANDARD
  0
TEXT
  5
71E
  8
0
 10
1.5
 20
3.1875
 30
0.0
 40
0.09375
  1
E-70TI CODE 5.3 FLUX CORE WIRE ONLY.
  7
MOHAWK$0$STANDARD
  0
TEXT
  5
71F
  8
0
 10
1.5
 20
3.375
 30
0.0
 40
0.09375
  1
SPECIFICATIONS TO E-70XX ELECTRODES OR
  7
MOHAWK$0$STANDARD
  0
TEXT
  5
720
  8
0
 10
1.25
 20
3.5625
 30
0.0
 40
0.09375
  1
3. WELDING MEDIUM SHALL CONFORM TO AWS
  7
MOHAWK$0$STANDARD
  0
TEXT
  5
721
  8
0
 10
12.75
 20
3.125
 30
0.0
 40
0.09375
  1
LB.
  7
MOHAWK$0$STANDARD
  0
TEXT
  5
722
  8
0
 10
1.25
 20
4.125
 30
0.0
 40
0.09375
  1
1. REMOVE ALL SHARP CORNERS & EDGES.
  7
MOHAWK$0$STANDARD
  0
POLYLINE
  5
723
  8
0
 66
     1
 10
0.0
 20
0.0
 30
0.0
 40
0.03125
 41
0.03125
  0
VERTEX
  5
87E
  8
0
 10
5.1875
 20
4.5
 30
0.0
  0
VERTEX
  5
87F
  8
0
 10
5.1875
 20
3.0
 30
0.0
  0
SEQEND
  5
880
  8
0
  0
POLYLINE
  5
727
  8
0
 66
     1
 10
0.0
 20
0.0
 30
0.0
 40
0.03125
 41
0.03125
  0
VERTEX
  5
881
  8
0
 10
1.0
 20
3.0
 30
0.0
  0
VERTEX
  5
882
  8
0
 10
1.0
 20
4.5
 30
0.0
  0
SEQEND
  5
883
  8
0
  0
TEXT
  5
72B
  8
0
 10
6.4375
 20
3.625
 30
0.0
 40
0.09375
  1
%%P .005
  7
MOHAWK$0$STANDARD
  0
TEXT
  5
72C
  8
0
 10
6.4375
 20
3.75
 30
0.0
 40
0.09375
  1
%%P .030
  7
MOHAWK$0$STANDARD
  0
TEXT
  5
72D
  8
0
 10
6.4375
 20
4.0
 30
0.0
 40
0.09375
  1
%%P .030
  7
MOHAWK$0$STANDARD
  0
TEXT
  5
72E
  8
0
 10
5.5
 20
3.625
 30
0.0
 40
0.09375
  1
0.XXX
  7
MOHAWK$0$STANDARD
  0
TEXT
  5
72F
  8
0
 10
5.5
 20
3.75
 30
0.0
 40
0.09375
  1
0.XX
  7
MOHAWK$0$STANDARD
  0
TEXT
  5
730
  8
0
 10
5.375
 20
3.875
 30
0.0
 40
0.09375
  1
DECIMAL:
  7
MOHAWK$0$STANDARD
  0
TEXT
  5
731
  8
0
 10
5.375
 20
4.0
 30
0.0
 40
0.09375
  1
FRACTIONAL
  7
MOHAWK$0$STANDARD
  0
TEXT
  5
732
  8
0
 10
5.375
 20
4.125
 30
0.0
 40
0.09375
  1
ANGULAR
  7
MOHAWK$0$STANDARD
  0
TEXT
  5
733
  8
0
 10
5.375
 20
4.3125
 30
0.0
 40
0.09375
  1
TOLERANCES:
  7
MOHAWK$0$STANDARD
  0
POLYLINE
  5
734
  8
0
 66
     1
 10
0.0
 20
0.0
 30
0.0
 40
0.03125
 41
0.03125
  0
VERTEX
  5
884
  8
0
 10
8.875
 20
3.375
 30
0.0
  0
VERTEX
  5
885
  8
0
 10
8.875
 20
4.5
 30
0.0
  0
SEQEND
  5
886
  8
0
  0
POLYLINE
  5
738
  8
0
 66
     1
 10
0.0
 20
0.0
 30
0.0
 40
0.03125
 41
0.03125
  0
VERTEX
  5
887
  8
0
 10
7.125
 20
3.375
 30
0.0
  0
VERTEX
  5
888
  8
0
 10
10.625
 20
3.375
 30
0.0
  0
SEQEND
  5
889
  8
0
  0
LINE
  5
73C
  8
0
 10
10.625
 20
4.125
 30
0.0
 11
7.125
 21
4.125
 31
0.0
  0
LINE
  5
73D
  8
0
 10
7.125
 20
3.75
 30
0.0
 11
10.625
 21
3.75
 31
0.0
  0
LINE
  5
73E
  8
0
 10
8.875
 20
3.5
 30
0.0
 11
8.875
 21
3.375
 31
0.0
  0
LINE
  5
73F
  8
0
 10
7.125
 20
3.375
 30
0.0
 11
10.625
 21
3.375
 31
0.0
  0
TEXT
  5
740
  8
0
 10
8.2589285714285712
 20
3.125
 30
0.0
 40
0.09375
  1
NEXT ASSEMBLY
  7
MOHAWK$0$STANDARD
 72
     1
 11
8.875
 21
3.125
 31
0.0
  0
LINE
  5
741
  8
0
 10
8.875
 20
3.5
 30
0.0
 11
8.875
 21
4.5
 31
0.0
  0
POLYLINE
  5
742
  8
0
 66
     1
 10
0.0
 20
0.0
 30
0.0
 40
0.03125
 41
0.03125
  0
VERTEX
  5
88A
  8
0
 10
17.0
 20
3.5
 30
0.0
  0
VERTEX
  5
88B
  8
0
 10
10.625
 20
3.5
 30
0.0
  0
SEQEND
  5
88C
  8
0
  0
POLYLINE
  5
746
  8
0
 66
     1
 10
0.0
 20
0.0
 30
0.0
 40
0.03125
 41
0.03125
  0
VERTEX
  5
88D
  8
0
 10
17.0
 20
4.0
 30
0.0
  0
VERTEX
  5
88E
  8
0
 10
10.625
 20
4.0
 30
0.0
  0
SEQEND
  5
88F
  8
0
  0
POLYLINE
  5
74A
  8
0
 66
     1
 10
0.0
 20
0.0
 30
0.0
 40
0.03125
 41
0.03125
  0
VERTEX
  5
890
  8
0
 10
7.125
 20
3.0
 30
0.0
  0
VERTEX
  5
891
  8
0
 10
7.125
 20
4.5
 30
0.0
  0
SEQEND
  5
892
  8
0
  0
POLYLINE
  5
74E
  8
0
 66
     1
 10
0.0
 20
0.0
 30
0.0
 40
0.03125
 41
0.03125
  0
VERTEX
  5
893
  8
0
 10
16.57129570693872
 20
3.0818393075563471
 30
0.0
  0
VERTEX
  5
894
  8
0
 10
16.75879570693872
 20
3.3943393075563471
 30
0.0
  0
VERTEX
  5
895
  8
0
 10
16.94629570693872
 20
3.0818393075563471
 30
0.0
  0
VERTEX
  5
896
  8
0
 10
16.57129570693872
 20
3.0818393075563471
 30
0.0
  0
VERTEX
  5
897
  8
0
 10
16.75879570693872
 20
3.3943393075563471
 30
0.0
  0
SEQEND
  5
898
  8
0
  0
TEXT
  5
755
  8
0
 10
11.875
 20
3.3125
 30
0.0
 40
0.09375
  1
WEIGHT
  7
MOHAWK$0$STANDARD
  0
TEXT
  5
756
  8
0
 10
10.74999999999998
 20
3.3125
 30
0.0
 40
0.09375
  1
DATE
  7
MOHAWK$0$STANDARD
  0
TEXT
  5
757
  8
0
 10
11.875
 20
3.8125
 30
0.0
 40
0.09375
  1
APPROVED
  7
MOHAWK$0$STANDARD
  0
TEXT
  5
758
  8
0
 10
10.74999999999998
 20
3.8125
 30
0.0
 40
0.09375
  1
CHECKED
  7
MOHAWK$0$STANDARD
  0
TEXT
  5
759
  8
0
 10
10.74999999999998
 20
4.3125
 30
0.0
 40
0.09375
  1
SCALE
  7
MOHAWK$0$STANDARD
  0
TEXT
  5
75A
  8
0
 10
11.875
 20
4.3125
 30
0.0
 40
0.09375
  1
DRAWN
  7
MOHAWK$0$STANDARD
  0
POLYLINE
  5
75B
  8
0
 66
     1
 10
0.0
 20
0.0
 30
0.0
 40
0.03125
 41
0.03125
  0
VERTEX
  5
899
  8
0
 10
10.625
 20
3.0
 30
0.0
  0
VERTEX
  5
89A
  8
0
 10
10.625
 20
4.5
 30
0.0
  0
SEQEND
  5
89B
  8
0
  0
POLYLINE
  5
75F
  8
0
 66
     1
 10
0.0
 20
0.0
 30
0.0
 40
0.03125
 41
0.03125
  0
VERTEX
  5
89C
  8
0
 10
11.75
 20
3.0
 30
0.0
  0
VERTEX
  5
89D
  8
0
 10
11.75
 20
4.5
 30
0.0
  0
SEQEND
  5
89E
  8
0
  0
TEXT
  5
763
  8
0
 10
13.125
 20
3.8125
 30
0.0
 40
0.09375
  1
TITLE
  7
MOHAWK$0$STANDARD
  0
POLYLINE
  5
764
  8
0
 66
     1
 10
0.0
 20
0.0
 30
0.0
 40
0.03125
 41
0.03125
  0
VERTEX
  5
89F
  8
0
 10
13.0
 20
3.0
 30
0.0
  0
VERTEX
  5
8A0
  8
0
 10
13.0
 20
4.5
 30
0.0
  0
SEQEND
  5
8A1
  8
0
  0
TEXT
  5
768
  8
0
 10
14.875
 20
3.3125
 30
0.0
 40
0.09375
  1
DRAWING NUMBER
  7
MOHAWK$0$STANDARD
  0
TEXT
  5
769
  8
0
 10
13.125
 20
3.3125
 30
0.0
 40
0.09375
  1
FROM
  7
MOHAWK$0$STANDARD
  0
POLYLINE
  5
76A
  8
0
 66
     1
 10
0.0
 20
0.0
 30
0.0
 40
0.03125
 41
0.03125
  0
VERTEX
  5
8A2
  8
0
 10
14.75
 20
3.0
 30
0.0
  0
VERTEX
  5
8A3
  8
0
 10
14.75
 20
3.5
 30
0.0
  0
SEQEND
  5
8A4
  8
0
  0
POLYLINE
  5
76E
  8
0
 66
     1
 10
0.0
 20
0.0
 30
0.0
 40
0.03125
 41
0.03125
  0
VERTEX
  5
8A5
  8
0
 10
16.5
 20
3.0
 30
0.0
  0
VERTEX
  5
8A6
  8
0
 10
16.5
 20
3.5
 30
0.0
  0
SEQEND
  5
8A7
  8
0
  0
TEXT
  5
772
  8
0
 10
5.25
 20
3.3125
 30
0.0
 40
0.09375
  1
FILE NAME
  7
MOHAWK$0$STANDARD
  0
POLYLINE
  5
773
  8
0
 66
     1
 10
0.0
 20
0.0
 30
0.0
 40
0.03125
 41
0.03125
  0
VERTEX
  5
8A8
  8
0
 10
7.125
 20
3.5
 30
0.0
  0
VERTEX
  5
8A9
  8
0
 10
5.1875
 20
3.5
 30
0.0
  0
SEQEND
  5
8AA
  8
0
  0
POLYLINE
  5
777
  8
0
 66
     1
 10
0.0
 20
0.0
 30
0.0
 40
0.03125
 41
0.03125
  0
VERTEX
  5
8AB
  8
0
 10
1.0
 20
4.5
 30
0.0
  0
VERTEX
  5
8AC
  8
0
 10
17.0
 20
4.5
 30
0.0
  0
SEQEND
  5
8AD
  8
0
  0
POLYLINE
  5
77B
  8
0
 66
     1
 10
0.0
 20
0.0
 30
0.0
 40
0.03125
 41
0.03125
  0
VERTEX
  5
8AE
  8
0
 10
17.0
 20
3.0
 30
0.0
  0
VERTEX
  5
8AF
  8
0
 10
1.0
 20
3.0
 30
0.0
  0
SEQEND
  5
8B0
  8
0
  0
TEXT
  5
77F
  8
0
 10
6.4375
 20
4.125
 30
0.0
 40
0.09375
  1
%%P 1
  7
MOHAWK$0$STANDARD
  0
CIRCLE
  5
780
  8
0
 10
6.76960531996626
 20
4.1972447518704987
 30
0.0
 40
0.0244051144589954
  0
TEXT
  5
781
  8
0
 10
1.25
 20
3.9375
 30
0.0
 40
0.09375
  1
2. UNLESS OTHERWISE SPECIFIED, SURFACE
  7
MOHAWK$0$STANDARD
  0
TEXT
  5
782
  8
0
 10
1.5
 20
3.75
 30
0.0
 40
0.09375
  1
FINISH TO BE 125 RMS.
  7
MOHAWK$0$STANDARD
  0
TEXT
  5
783
  8
0
 10
13.125
 20
4.125
 30
0.0
 40
0.25
  1
MOHAWK RESOURCES LTD.
 41
0.7905009759271308
  7
MOHAWK$0$STANDARD2
 72
     5
 11
16.875
 21
4.125
 31
0.0
  0
ENDBLK
  5
784
  8
0
  0
BLOCK
  8
0
  2
REV
 70
     0
 10
11.0
 20
5.0
 30
0.0
  3
REV
  1
REV
  0
POLYLINE
  5
786
  8
0
 66
     1
 10
0.0
 20
0.0
 30
0.0
 40
0.03125
 41
0.03125
  0
VERTEX
  5
8B1
  8
0
 10
3.0625
 20
4.1875
 30
0.0
  0
VERTEX
  5
8B2
  8
0
 10
3.3125
 20
4.5625
 30
0.0
  0
VERTEX
  5
8B3
  8
0
 10
3.5625
 20
4.1875
 30
0.0
  0
VERTEX
  5
8B4
  8
0
 10
3.0625
 20
4.1875
 30
0.0
  0
VERTEX
  5
8B5
  8
0
 10
3.3125
 20
4.5625
 30
0.0
  0
SEQEND
  5
8B6
  8
0
  0
POLYLINE
  5
78D
  8
0
 66
     1
 10
0.0
 20
0.0
 30
0.0
 40
0.03125
 41
0.03125
  0
VERTEX
  5
8B7
  8
0
 10
2.875
 20
4.625
 30
0.0
  0
VERTEX
  5
8B8
  8
0
 10
11.0
 20
4.625
 30
0.0
  0
SEQEND
  5
8B9
  8
0
  0
POLYLINE
  5
791
  8
0
 66
     1
 10
0.0
 20
0.0
 30
0.0
 40
0.03125
 41
0.03125
  0
VERTEX
  5
8BA
  8
0
 10
2.875
 20
5.0
 30
0.0
  0
VERTEX
  5
8BB
  8
0
 10
11.0
 20
5.0
 30
0.0
  0
SEQEND
  5
8BC
  8
0
  0
TEXT
  5
795
  8
0
 10
5.6383928571428568
 20
4.75
 30
0.0
 40
0.09375
  1
DESCRIPTION
  7
REV$0$STANDARD
 72
     1
 11
6.125
 21
4.75
 31
0.0
  0
TEXT
  5
796
  8
0
 10
3.151785714285714
 20
4.75
 30
0.0
 40
0.09375
  1
REV.
  7
REV$0$STANDARD
 72
     1
 11
3.3125
 21
4.75
 31
0.0
  0
TEXT
  5
797
  8
0
 10
8.8794642857142865
 20
4.75
 30
0.0
 40
0.09375
  1
DATE
  7
REV$0$STANDARD
 72
     1
 11
9.0625
 21
4.75
 31
0.0
  0
TEXT
  5
798
  8
0
 10
9.7745535714285712
 20
4.75
 30
0.0
 40
0.09375
  1
BY
  7
REV$0$STANDARD
 72
     1
 11
9.875
 21
4.75
 31
0.0
  0
TEXT
  5
799
  8
0
 10
10.390625
 20
4.75
 30
0.0
 40
0.09375
  1
APP'D.
  7
REV$0$STANDARD
 72
     1
 11
10.625
 21
4.75
 31
0.0
  0
POLYLINE
  5
79A
  8
0
 66
     1
 10
0.0
 20
0.0
 30
0.0
 40
0.03125
 41
0.03125
  0
VERTEX
  5
8BD
  8
0
 10
2.875
 20
4.125
 30
0.0
  0
VERTEX
  5
8BE
  8
0
 10
2.875
 20
5.0
 30
0.0
  0
SEQEND
  5
8BF
  8
0
  0
POLYLINE
  5
79E
  8
0
 66
     1
 10
0.0
 20
0.0
 30
0.0
 40
0.03125
 41
0.03125
  0
VERTEX
  5
8C0
  8
0
 10
3.75
 20
4.125
 30
0.0
  0
VERTEX
  5
8C1
  8
0
 10
3.75
 20
5.0
 30
0.0
  0
SEQEND
  5
8C2
  8
0
  0
POLYLINE
  5
7A2
  8
0
 66
     1
 10
0.0
 20
0.0
 30
0.0
 40
0.03125
 41
0.03125
  0
VERTEX
  5
8C3
  8
0
 10
8.625
 20
5.0
 30
0.0
  0
VERTEX
  5
8C4
  8
0
 10
8.625
 20
4.125
 30
0.0
  0
SEQEND
  5
8C5
  8
0
  0
POLYLINE
  5
7A6
  8
0
 66
     1
 10
0.0
 20
0.0
 30
0.0
 40
0.03125
 41
0.03125
  0
VERTEX
  5
8C6
  8
0
 10
9.5
 20
4.125
 30
0.0
  0
VERTEX
  5
8C7
  8
0
 10
9.5
 20
5.0
 30
0.0
  0
SEQEND
  5
8C8
  8
0
  0
POLYLINE
  5
7AA
  8
0
 66
     1
 10
0.0
 20
0.0
 30
0.0
 40
0.03125
 41
0.03125
  0
VERTEX
  5
8C9
  8
0
 10
10.25
 20
4.125
 30
0.0
  0
VERTEX
  5
8CA
  8
0
 10
10.25
 20
5.0
 30
0.0
  0
SEQEND
  5
8CB
  8
0
  0
POLYLINE
  5
7AE
  8
0
 66
     1
 10
0.0
 20
0.0
 30
0.0
 40
0.03125
 41
0.03125
  0
VERTEX
  5
8CC
  8
0
 10
11.0
 20
4.125
 30
0.0
  0
VERTEX
  5
8CD
  8
0
 10
11.0
 20
5.0
 30
0.0
  0
SEQEND
  5
8CE
  8
0
  0
ENDBLK
  5
7B2
  8
0
  0
BLOCK
  8
0
  2
CONF
 70
     0
 10
3.0
 20
3.0
 30
0.0
  3
CONF
  1
CONF
  0
LINE
  5
7B4
  8
0
 10
2.5
 20
4.0
 30
0.0
 11
7.5
 21
4.0
 31
0.0
  0
TEXT
  5
7B5
  8
0
 10
2.637648809523808
 20
3.6875
 30
0.0
 40
0.15625
  1
NOTICE OF CONFIDENTIAL INFORMATION
 51
15.0
  7
CONF$0$LEROY
 72
     1
 11
5.0
 21
3.6875
 31
0.0
  0
LINE
  5
7B6
  8
0
 10
2.65625
 20
3.609375
 30
0.0
 11
7.34375
 21
3.609375
 31
0.0
  0
TEXT
  5
7B7
  8
0
 10
2.718363672171427
 20
3.267932681490751
 30
0.0
 40
0.078125
  1
INFORMATION CONTAINED HEREIN IS CONFIDENTIAL AND PROPERTY OF 
  7
CONF$0$LEROY2
  0
TEXT
  5
7B8
  8
0
 10
2.718363672171427
 20
3.1414445862526561
 30
0.0
 40
0.078125
  1
MOHAWK RESOURCES LTD.. WHERE DRAWING IS FURNISHED TO OTHERS
  7
CONF$0$LEROY2
  0
TEXT
  5
7B9
  8
0
 10
2.718363672171427
 20
3.014956491014559
 30
0.0
 40
0.078125
  1
IT SHALL BE USED SOLELY FOR PURPOSES OF INSPECTION, INSTALLATION,
  7
CONF$0$LEROY2
  0
TEXT
  5
7BA
  8
0
 10
2.718363672171427
 20
2.888468395776465
 30
0.0
 40
0.078125
  1
OR MAINTENANCE. THE INFORMATION SHALL NOT BE USED OR DISCLOSED
  7
CONF$0$LEROY2
  0
TEXT
  5
7BB
  8
0
 10
2.718363672171427
 20
2.7619803005383701
 30
0.0
 40
0.078125
  1
BY THE RECIPIENT FOR ANY OTHER PURPOSES WHATSOEVER.
  7
CONF$0$LEROY2
  0
LINE
  5
7BC
  8
0
 10
2.5
 20
4.0
 30
0.0
 11
2.5
 21
2.5
 31
0.0
  0
LINE
  5
7BD
  8
0
 10
2.5
 20
2.5
 30
0.0
 11
7.5
 21
2.5
 31
0.0
  0
LINE
  5
7BE
  8
0
 10
7.5
 20
2.5
 30
0.0
 11
7.5
 21
4.0
 31
0.0
  0
ENDBLK
  5
7BF
  8
0
  0
BLOCK
  8
0
  2
DTITLE
 70
     2
 10
0.0
 20
0.0
 30
0.0
  3
DTITLE
  1

  0
ATTDEF
  5
702
  8
A1-BORDER-LABELS
 10
-3.875
 20
0.625
 30
0.0
 40
0.125
  1

 51
15.0
  7
LEROY
  3
DRAWING TITLE
  2
DRAW-TITLE
 70
     4
  0
ATTDEF
  5
703
  8
A1-BORDER-LABELS
 10
-0.3125
 20
0.125
 30
0.0
 40
0.125
  1

 51
15.0
  7
LEROY
  3
REVISION
  2
R
 70
     4
  0
ATTDEF
  5
704
  8
A1-BORDER-LABELS
 10
-2.125
 20
0.125
 30
0.0
 40
0.125
  1

 51
15.0
  7
LEROY
  3
DRAWING NUMBER
  2
DRAW-NO.
 70
     4
  0
ATTDEF
  5
705
  8
A1-BORDER-LABELS
 10
-3.875
 20
0.125
 30
0.0
 40
0.125
  1

 51
15.0
  7
LEROY
  3
DRAWING FROM
  2
FROM
 70
     4
  0
ATTDEF
  5
706
  8
A1-BORDER-LABELS
 10
-11.625
 20
0.125
 30
0.0
 40
0.125
  1

 51
15.0
  7
LEROY
  3
FILE NAME
  2
FILE-NAME
 70
     4
  0
ATTDEF
  5
707
  8
A1-BORDER-LABELS
 10
-6.25
 20
1.125
 30
0.0
 40
0.125
  1

 51
15.0
  7
LEROY
  3
SCALE
  2
SCALE
 70
     4
  0
ATTDEF
  5
708
  8
A1-BORDER-LABELS
 10
-5.125
 20
0.125
 30
0.0
 40
0.125
  1

 51
15.0
  7
LEROY
  3
WEIGHT
  2
WEIGHT
 70
     4
  0
ATTDEF
  5
709
  8
A1-BORDER-LABELS
 10
-6.25
 20
0.125
 30
0.0
 40
0.125
  1

 51
15.0
  7
LEROY
  3
DATE
  2
DATE
 70
     4
  0
ATTDEF
  5
70A
  8
A1-BORDER-LABELS
 10
-5.125
 20
1.125
 30
0.0
 40
0.125
  1

 51
15.0
  7
LEROY
  3
DRAWN BY
  2
DRAWN
 70
     4
  0
ENDBLK
  5
70B
  8
0
  0
BLOCK
  8
0
  2
NASSY
 70
     2
 10
0.0
 20
0.0
 30
0.0
  3
NASSY
  1

  0
ATTDEF
  5
70E
  8
A1-BORDER-LABELS
 10
-9.75
 20
0.5
 30
0.0
 40
0.125
  1

 51
15.0
  7
LEROY
  3
NEXT ASSEMBLY
  2
NEXT-ASSEMBLY
 70
     4
  0
ATTDEF
  5
70F
  8
A1-BORDER-LABELS
 10
-8.0
 20
0.5
 30
0.0
 40
0.125
  1

 51
15.0
  7
LEROY
  3
NEXT ASSEMBLY
  2
NEXT-ASSEMBLY
 70
     4
  0
ATTDEF
  5
710
  8
A1-BORDER-LABELS
 10
-9.75
 20
0.875
 30
0.0
 40
0.125
  1

 51
15.0
  7
LEROY
  3
NEXT ASSEMBLY
  2
NEXT-ASSEMBLY
 70
     4
  0
ATTDEF
  5
711
  8
A1-BORDER-LABELS
 10
-8.0
 20
0.875
 30
0.0
 40
0.125
  1

 51
15.0
  7
LEROY
  3
NEXT ASSEMBLY
  2
NEXT-ASSEMBLY
 70
     4
  0
ATTDEF
  5
712
  8
A1-BORDER-LABELS
 10
-9.75
 20
1.25
 30
0.0
 40
0.125
  1

 51
15.0
  7
LEROY
  3
NEXT ASSEMBLY
  2
NEXT-ASSEMBLY
 70
     4
  0
ATTDEF
  5
713
  8
A1-BORDER-LABELS
 10
-8.0
 20
1.25
 30
0.0
 40
0.125
  1

 51
15.0
  7
LEROY
  3
NEXT ASSEMBLY
  2
NEXT-ASSEMBLY
 70
     4
  0
ENDBLK
  5
714
  8
0
  0
BLOCK
  8
0
  2
LAYERS2
 70
     0
 10
0.0
 20
0.0
 30
0.0
  3
LAYERS2
  1

  0
ENDBLK
  5
717
  8
0
  0
ENDSEC
  0
SECTION
  2
ENTITIES
  0
INSERT
  5
7C0
  8
0
  2
LAYERS
 10
0.0
 20
0.0
 30
0.0
  0
INSERT
  5
7C1
  8
0
  2
CS
 10
0.0
 20
0.0
 30
0.0
  0
INSERT
  5
7C2
  8
A1-BORDER-LABELS
 66
     1
  2
DTITLE
 10
21.499999999999989
 20
0.5
 30
0.0
  0
ATTRIB
  5
7C3
  8
A1-BORDER-LABELS
 10
17.625
 20
1.125
 30
0.0
 40
0.125
  1
BOTTOM PLATE   (LEG WELDMENT)
 51
15.0
  7
LEROY
  2
DRAW-TITLE
 70
     4
  0
ATTRIB
  5
7C4
  8
A1-BORDER-LABELS
 10
21.187499999999989
 20
0.625
 30
0.0
 40
0.125
  1
A
 51
15.0
  7
LEROY
  2
R
 70
     4
  0
ATTRIB
  5
7C5
  8
A1-BORDER-LABELS
 10
19.375
 20
0.625
 30
0.0
 40
0.125
  1
025-000-110
 51
15.0
  7
LEROY
  2
DRAW-NO.
 70
     4
  0
ATTRIB
  5
7C6
  8
A1-BORDER-LABELS
 10
17.625
 20
0.625
 30
0.0
 40
0.125
  1
600-000-031
 51
15.0
  7
LEROY
  2
FROM
 70
     4
  0
ATTRIB
  5
7C7
  8
A1-BORDER-LABELS
 10
9.875
 20
0.625
 30
0.0
 40
0.125
  1
F00110
 51
15.0
  7
LEROY
  2
FILE-NAME
 70
     4
  0
ATTRIB
  5
7C8
  8
A1-BORDER-LABELS
 10
15.25
 20
1.625
 30
0.0
 40
0.125
  1
FULL
 51
15.0
  7
LEROY
  2
SCALE
 70
     4
  0
ATTRIB
  5
7C9
  8
A1-BORDER-LABELS
 10
16.375
 20
0.625
 30
0.0
 40
0.125
  1
19.5
 51
15.0
  7
LEROY
  2
WEIGHT
 70
     4
  0
ATTRIB
  5
7CA
  8
A1-BORDER-LABELS
 10
15.25
 20
0.625
 30
0.0
 40
0.125
  1
10/92
 51
15.0
  7
LEROY
  2
DATE
 70
     4
  0
ATTRIB
  5
7CB
  8
A1-BORDER-LABELS
 10
16.375
 20
1.625
 30
0.0
 40
0.125
  1
dak
 51
15.0
  7
LEROY
  2
DRAWN
 70
     4
  0
SEQEND
  5
7CC
  8
A1-BORDER-LABELS
  0
INSERT
  5
7CD
  8
A1-BORDER-LABELS
 66
     1
  2
NASSY
 10
21.499999999999989
 20
0.5
 30
0.0
  0
ATTRIB
  5
7CE
  8
A1-BORDER-LABELS
 10
11.75
 20
1.0
 30
0.0
 40
0.125
  1
025-002-004
 51
15.0
  7
LEROY
  2
NEXT-ASSEMBLY
 70
     4
  0
ATTRIB
  5
7CF
  8
A1-BORDER-LABELS
 10
13.5
 20
1.0
 30
0.0
 40
0.125
  1
025-002-007
 51
15.0
  7
LEROY
  2
NEXT-ASSEMBLY
 70
     4
  0
ATTRIB
  5
7D0
  8
A1-BORDER-LABELS
 10
11.75
 20
1.375
 30
0.0
 40
0.125
  1
025-000-003
 51
15.0
  7
LEROY
  2
NEXT-ASSEMBLY
 70
     4
  0
ATTRIB
  5
7D1
  8
A1-BORDER-LABELS
 10
13.5
 20
1.375
 30
0.0
 40
0.125
  1
025-000-004
 51
15.0
  7
LEROY
  2
NEXT-ASSEMBLY
 70
     4
  0
ATTRIB
  5
7D2
  8
A1-BORDER-LABELS
 10
11.75
 20
1.75
 30
0.0
 40
0.125
  1

 51
15.0
  7
LEROY
  2
NEXT-ASSEMBLY
 70
     4
  0
ATTRIB
  5
7D3
  8
A1-BORDER-LABELS
 10
13.5
 20
1.75
 30
0.0
 40
0.125
  1

 51
15.0
  7
LEROY
  2
NEXT-ASSEMBLY
 70
     4
  0
SEQEND
  5
7D4
  8
A1-BORDER-LABELS
  0
INSERT
  5
7D5
  8
0
  2
LAYERS2
 10
6.125
 20
6.5366767380821731
 30
0.0
 41
0.5
 42
0.5
 43
0.5
  0
LINE
  5
7D6
  8
0
 10
3.6964314308360069
 20
6.8788563464667281
 30
0.0
 11
3.6964314308360069
 21
9.5991767380821731
 31
0.0
  0
ARC
  5
7D7
  8
0
 10
4.1339314308360091
 20
7.0991767380821731
 30
0.0
 40
0.21875
 50
247.88538047615839
 51
202.1146195238411
  0
LINE
  5
7D8
  8
0
 10
3.8694168653964081
 20
6.76837091190633
 30
0.0
 11
3.983857695586023
 21
6.8828117420959511
 31
0.0
  0
LINE
  5
7D9
  8
0
 10
3.8031256046601669
 20
6.8346621726425694
 30
0.0
 11
3.9175664348497872
 21
6.949103002832187
 31
0.0
  0
ARC
  5
7DA
  8
0
 10
4.0280518694101852
 20
6.8386175682717907
 30
0.0
 40
0.0625
 50
67.885380476158687
 51
135.0
  0
ARC
  5
7DB
  8
0
 10
3.9136110392205641
 20
6.7241767380821731
 30
0.0
 40
0.0625
 50
135.0
 51
270.0
  0
ARC
  5
7DC
  8
0
 10
3.8733722610256272
 20
6.9932971766563483
 30
0.0
 40
0.0625
 50
315.0
 51
22.114619523842109
  0
ARC
  5
7DD
  8
0
 10
3.7589314308360069
 20
6.8788563464667281
 30
0.0
 40
0.0625
 50
180.0
 51
315.0
  0
ARC
  5
7DE
  8
0
 10
9.3944906006463906
 20
6.9932971766563483
 30
0.0
 40
0.0625
 50
157.88538047615799
 51
225.0
  0
ARC
  5
7DF
  8
0
 10
9.3542518224514524
 20
6.7241767380821731
 30
0.0
 40
0.0625
 50
270.0
 51
44.999999999999993
  0
ARC
  5
7E0
  8
0
 10
9.2398109922618321
 20
6.8386175682717907
 30
0.0
 40
0.0625
 50
44.999999999999993
 51
112.1146195238412
  0
LINE
  5
7E1
  8
0
 10
9.4647372570118478
 20
6.8346621726425694
 30
0.0
 11
9.3502964268222328
 21
6.949103002832187
 31
0.0
  0
LINE
  5
7E2
  8
0
 10
9.3984459962756102
 20
6.76837091190633
 30
0.0
 11
9.2840051660859917
 21
6.8828117420959511
 31
0.0
  0
ARC
  5
7E3
  8
0
 10
9.1339314308360073
 20
7.0991767380821731
 30
0.0
 40
0.21875
 50
337.88538047615918
 51
292.11461952384133
  0
ARC
  5
7E4
  8
0
 10
9.5089314308360073
 20
6.8788563464667281
 30
0.0
 40
0.0625
 50
225.0
 51
0.0
  0
LINE
  5
7E5
  8
0
 10
9.5714314308360073
 20
6.8788563464667281
 30
0.0
 11
9.5714314308360073
 21
9.5991767380821731
 31
0.0
  0
ARC
  5
7E6
  8
0
 10
3.7589314308360069
 20
12.319497129697581
 30
0.0
 40
0.0625
 50
45.0
 51
180.0
  0
ARC
  5
7E7
  8
0
 10
3.8733722610256272
 20
12.205056299507991
 30
0.0
 40
0.0625
 50
337.8853804761581
 51
45.0
  0
ARC
  5
7E8
  8
0
 10
3.9136110392205641
 20
12.47417673808217
 30
0.0
 40
0.0625
 50
90.0
 51
225.0
  0
ARC
  5
7E9
  8
0
 10
4.0280518694101852
 20
12.35973590789253
 30
0.0
 40
0.0625
 50
225.0
 51
292.1146195238411
  0
LINE
  5
7EA
  8
0
 10
3.8031256046601669
 20
12.363691303521771
 30
0.0
 11
3.9175664348497872
 21
12.24925047333215
 31
0.0
  0
LINE
  5
7EB
  8
0
 10
3.8694168653964081
 20
12.42998256425801
 30
0.0
 11
3.983857695586023
 21
12.31554173406839
 31
0.0
  0
ARC
  5
7EC
  8
0
 10
4.1339314308360091
 20
12.09917673808217
 30
0.0
 40
0.21875
 50
157.8853804761591
 51
112.1146195238412
  0
LINE
  5
7ED
  8
0
 10
6.6339314308360091
 20
12.53667673808217
 30
0.0
 11
3.9136110392205641
 21
12.53667673808217
 31
0.0
  0
LINE
  5
7EE
  8
0
 10
3.6964314308360069
 20
12.319497129697581
 30
0.0
 11
3.6964314308360069
 21
9.5991767380821731
 31
0.0
  0
LINE
  5
7EF
  8
0
 10
9.5714314308360073
 20
12.319497129697581
 30
0.0
 11
9.5714314308360073
 21
9.5991767380821731
 31
0.0
  0
ARC
  5
7F0
  8
0
 10
9.5089314308360073
 20
12.319497129697581
 30
0.0
 40
0.0625
 50
0.0
 51
135.0
  0
LINE
  5
7F1
  8
0
 10
6.6339314308360091
 20
12.53667673808217
 30
0.0
 11
9.3542518224514524
 21
12.53667673808217
 31
0.0
  0
ARC
  5
7F2
  8
0
 10
9.1339314308360073
 20
12.09917673808217
 30
0.0
 40
0.21875
 50
67.885380476158645
 51
22.114619523840599
  0
LINE
  5
7F3
  8
A1-DIMENSIONS
 62
     1
 10
10.35851732833682
 20
13.39005389631923
 30
0.0
 11
9.4939822120531012
 21
12.525518780035499
 31
0.0
  0
LINE
  5
7F4
  8
A1-DIMENSIONS
 62
     1
 10
10.42607626253718
 20
13.32503030904711
 30
0.0
 11
9.5628773536763862
 21
12.461831400186311
 31
0.0
  0
ARC
  5
7F5
  8
0
 10
9.2398109922618321
 20
12.35973590789253
 30
0.0
 40
0.0625
 50
247.88538047615839
 51
315.0
  0
ARC
  5
7F6
  8
0
 10
9.3542518224514524
 20
12.47417673808217
 30
0.0
 40
0.0625
 50
315.0
 51
90.0
  0
ARC
  5
7F7
  8
0
 10
9.3944906006463906
 20
12.205056299507991
 30
0.0
 40
0.0625
 50
135.0
 51
202.1146195238415
  0
LINE
  5
7F8
  8
A-LINE-OBJECT
 10
13.84177435351136
 20
6.6616767380821731
 30
0.0
 11
13.84177435351136
 21
12.53667673808217
 31
0.0
  0
LINE
  5
7F9
  8
A-LINE-OBJECT
 10
13.84177435351136
 20
12.53667673808217
 30
0.0
 11
14.09177435351137
 21
12.53667673808217
 31
0.0
  0
LINE
  5
7FA
  8
A-LINE-OBJECT
 10
14.09177435351137
 20
12.53667673808217
 30
0.0
 11
14.09177435351137
 21
6.6616767380821731
 31
0.0
  0
LINE
  5
7FB
  8
A-LINE-OBJECT
 10
14.09177435351137
 20
6.6616767380821731
 30
0.0
 11
13.84177435351136
 21
6.6616767380821731
 31
0.0
  0
LINE
  5
7FC
  8
A-LINE-CENTER
 62
     5
 10
13.71677435351136
 20
9.5991767380821731
 30
0.0
 11
14.21677435351137
 21
9.5991767380821731
 31
0.0
  0
LINE
  5
7FD
  8
A-LINE-CENTER
 10
4.0889314308360092
 20
7.0991767380821731
 30
0.0
 11
4.178931430836009
 21
7.0991767380821731
 31
0.0
  0
LINE
  5
7FE
  8
A-LINE-CENTER
 10
4.1339314308360091
 20
7.0541767380821732
 30
0.0
 11
4.1339314308360091
 21
7.144176738082173
 31
0.0
  0
LINE
  5
7FF
  8
A-LINE-CENTER
 10
4.0889314308360092
 20
12.09917673808217
 30
0.0
 11
4.178931430836009
 21
12.09917673808217
 31
0.0
  0
LINE
  5
800
  8
A-LINE-CENTER
 10
4.1339314308360091
 20
12.054176738082161
 30
0.0
 11
4.1339314308360091
 21
12.144176738082161
 31
0.0
  0
LINE
  5
801
  8
A-LINE-CENTER
 10
9.0889314308360074
 20
12.09917673808217
 30
0.0
 11
9.1789314308360073
 21
12.09917673808217
 31
0.0
  0
LINE
  5
802
  8
A-LINE-CENTER
 10
9.1339314308360073
 20
12.054176738082161
 30
0.0
 11
9.1339314308360073
 21
12.144176738082161
 31
0.0
  0
LINE
  5
803
  8
A-LINE-CENTER
 10
9.0889314308360074
 20
7.0991767380821731
 30
0.0
 11
9.1789314308360073
 21
7.0991767380821731
 31
0.0
  0
LINE
  5
804
  8
A-LINE-CENTER
 10
9.1339314308360073
 20
7.0541767380821732
 30
0.0
 11
9.1339314308360073
 21
7.144176738082173
 31
0.0
  0
LINE
  5
805
  8
A-LINE-HIDDEN
 62
     3
 10
13.84177435351136
 20
7.3179267380821731
 30
0.0
 11
14.09177435351137
 21
7.3179267380821731
 31
0.0
  0
LINE
  5
806
  8
A-LINE-HIDDEN
 62
     3
 10
13.84177435351136
 20
6.8804267380821731
 30
0.0
 11
14.09177435351137
 21
6.8804267380821731
 31
0.0
  0
LINE
  5
807
  8
A-LINE-CENTER
 62
     5
 10
13.71060104607729
 20
7.0991767380821731
 30
0.0
 11
14.219818812692999
 21
7.0991767380821731
 31
0.0
  0
LINE
  5
808
  8
A-LINE-HIDDEN
 62
     3
 10
13.84177435351136
 20
12.31792673808217
 30
0.0
 11
14.09177435351137
 21
12.31792673808217
 31
0.0
  0
LINE
  5
809
  8
A-LINE-CENTER
 62
     5
 10
13.71060104607729
 20
12.09917673808217
 30
0.0
 11
14.219818812692999
 21
12.09917673808217
 31
0.0
  0
LINE
  5
80A
  8
A-LINE-HIDDEN
 62
     3
 10
13.84177435351136
 20
11.88042673808217
 30
0.0
 11
14.09177435351137
 21
11.88042673808217
 31
0.0
  0
LINE
  5
80B
  8
A1-DIMENSIONS
  6
BYBLOCK
 10
9.1964314308360073
 20
7.0991767380821731
 30
0.0
 11
10.6293681139119
 21
7.0991767380821731
 31
0.0
  0
LINE
  5
80C
  8
A1-DIMENSIONS
  6
BYBLOCK
 10
10.4493681139119
 20
6.4816767380821698
 30
0.0
 11
10.4493681139119
 21
6.3016767380821692
 31
0.0
  0
LINE
  5
80D
  8
A1-DIMENSIONS
  6
BYBLOCK
 10
10.4493681139119
 20
7.2791767380821719
 30
0.0
 11
10.4493681139119
 21
7.459176738082169
 31
0.0
  0
LINE
  5
80E
  8
A1-DIMENSIONS
  6
BYBLOCK
 10
10.4493681139119
 20
7.459176738082169
 30
0.0
 11
10.6293681139119
 21
7.459176738082169
 31
0.0
  0
SOLID
  5
80F
  8
A1-DIMENSIONS
  6
BYBLOCK
 10
10.419368113911901
 20
6.4816767380821698
 30
0.0
 11
10.479368113911899
 21
6.4816767380821698
 31
0.0
 12
10.4493681139119
 22
6.6616767380821731
 32
0.0
 13
10.4493681139119
 23
6.6616767380821731
 33
0.0
  0
SOLID
  5
810
  8
A1-DIMENSIONS
  6
BYBLOCK
 10
10.419368113911901
 20
7.2791767380821719
 30
0.0
 11
10.479368113911899
 21
7.2791767380821719
 31
0.0
 12
10.4493681139119
 22
7.0991767380821731
 32
0.0
 13
10.4493681139119
 23
7.0991767380821731
 33
0.0
  0
TEXT
  5
811
  8
A1-DIMENSIONS
  6
BYBLOCK
 10
10.70396063017307
 20
7.396676738082169
 30
0.0
 40
0.125
  1
7/8
 51
15.0
  7
LEROY
 72
     1
 11
10.89146063017307
 21
7.459176738082169
 31
0.0
 73
     2
  0
POINT
  5
812
  8
DEFPOINTS
  6
BYBLOCK
 62
     0
 10
9.1339314308360073
 20
6.6616767380821731
 30
0.0
  0
LINE
  5
813
  8
A1-DIMENSIONS
  6
BYBLOCK
 10
9.1339314308360073
 20
7.0366767380821731
 30
0.0
 11
9.1339314308360073
 21
5.680449856558579
 31
0.0
  0
LINE
  5
814
  8
0
  6
BYBLOCK
 62
     0
 10
9.5714314308360073
 20
7.0369170786790951
 30
0.0
 11
9.5714314308360073
 21
6.8788563464667281
 31
0.0
  0
LINE
  5
815
  8
A1-DIMENSIONS
  6
BYBLOCK
 10
8.9539314308360094
 20
5.8604498565585779
 30
0.0
 11
8.7739314308360097
 21
5.8604498565585779
 31
0.0
  0
LINE
  5
816
  8
A1-DIMENSIONS
  6
BYBLOCK
 10
9.7514314308360088
 20
5.8604498565585779
 30
0.0
 11
9.9314314308360085
 21
5.8604498565585779
 31
0.0
  0
SOLID
  5
817
  8
A1-DIMENSIONS
  6
BYBLOCK
 10
8.9539314308360094
 20
5.890449856558579
 30
0.0
 11
8.9539314308360094
 21
5.8304498565585812
 31
0.0
 12
9.1339314308360073
 22
5.8604498565585779
 32
0.0
 13
9.1339314308360073
 23
5.8604498565585779
 33
0.0
  0
SOLID
  5
818
  8
A1-DIMENSIONS
  6
BYBLOCK
 10
9.7514314308360088
 20
5.890449856558579
 30
0.0
 11
9.7514314308360088
 21
5.8304498565585812
 31
0.0
 12
9.5714314308360073
 22
5.8604498565585779
 32
0.0
 13
9.5714314308360073
 23
5.8604498565585779
 33
0.0
  0
TEXT
  5
819
  8
A1-DIMENSIONS
  6
BYBLOCK
 10
10.0060239470972
 20
5.7979498565585779
 30
0.0
 40
0.125
  1
7/8
 51
15.0
  7
LEROY
 72
     1
 11
10.1935239470972
 21
5.8604498565585779
 31
0.0
 73
     2
  0
POINT
  5
81A
  8
DEFPOINTS
  6
BYBLOCK
 62
     0
 10
9.5714314308360073
 20
7.0994170786790951
 30
0.0
  0
LINE
  5
81B
  8
A1-DIMENSIONS
  6
BYBLOCK
 10
9.635279894460627
 20
6.6616767380821731
 30
0.0
 11
10.6293681139119
 21
6.6616767380821731
 31
0.0
  0
LINE
  5
81C
  8
A1-DIMENSIONS
  6
BYBLOCK
 62
     1
 10
9.4347901576807782
 20
6.6616767380821731
 30
0.0
 11
9.5218355238271872
 21
6.6616767380821731
 31
0.0
  0
LINE
  5
81D
  8
A1-DIMENSIONS
  6
BYBLOCK
 10
9.5714314308360073
 20
6.7486943401696751
 30
0.0
 11
9.5714314308360073
 21
5.680449856558579
 31
0.0
  0
LINE
  5
81E
  8
0
  6
BYBLOCK
 62
     0
 10
4.98220706014905
 20
12.53667673808217
 30
0.0
 11
3.9136110392205641
 21
12.53667673808217
 31
0.0
  0
LINE
  5
81F
  8
A1-DIMENSIONS
  6
BYBLOCK
 10
2.5653410981918361
 20
6.8416767380821693
 30
0.0
 11
2.5653410981918361
 21
9.4466767380821732
 31
0.0
  0
LINE
  5
820
  8
A1-DIMENSIONS
  6
BYBLOCK
 10
2.5653410981918361
 20
12.35667673808217
 30
0.0
 11
2.5653410981918361
 21
9.7516767380821712
 31
0.0
  0
SOLID
  5
821
  8
A1-DIMENSIONS
  6
BYBLOCK
 10
2.5353410981918381
 20
6.8416767380821693
 30
0.0
 11
2.5953410981918381
 21
6.8416767380821693
 31
0.0
 12
2.5653410981918361
 22
6.6616767380821731
 32
0.0
 13
2.5653410981918361
 23
6.6616767380821731
 33
0.0
  0
SOLID
  5
822
  8
A1-DIMENSIONS
  6
BYBLOCK
 10
2.5353410981918381
 20
12.35667673808217
 30
0.0
 11
2.5953410981918381
 21
12.35667673808217
 31
0.0
 12
2.5653410981918361
 22
12.53667673808217
 32
0.0
 13
2.5653410981918361
 23
12.53667673808217
 33
0.0
  0
TEXT
  5
823
  8
A1-DIMENSIONS
  6
BYBLOCK
 10
2.1843887172394552
 20
9.5366767380821731
 30
0.0
 40
0.125
  1
11 3/4
 51
15.0
  7
LEROY
 72
     1
 11
2.5653410981918361
 21
9.5991767380821731
 31
0.0
 73
     2
  0
POINT
  5
824
  8
DEFPOINTS
  6
BYBLOCK
 62
     0
 10
4.6480085062358993
 20
6.6616767380821731
 30
0.0
  0
POINT
  5
825
  8
DEFPOINTS
  6
BYBLOCK
 62
     0
 10
5.04470706014905
 20
12.53667673808217
 30
0.0
  0
POINT
  5
826
  8
A1-DIMENSIONS
  6
BYBLOCK
 10
2.5653410981918361
 20
12.53667673808217
 30
0.0
  0
LINE
  5
827
  8
A1-DIMENSIONS
  6
BYBLOCK
 10
9.5714314308360073
 20
5.7979498565585779
 30
0.0
 11
9.5714314308360073
 21
4.8378691326374259
 31
0.0
  0
LINE
  5
828
  8
0
  6
BYBLOCK
 62
     0
 10
3.6964314308360069
 20
7.4582074406396703
 30
0.0
 11
3.6964314308360069
 21
6.8788563464667281
 31
0.0
  0
LINE
  5
829
  8
A1-DIMENSIONS
  6
BYBLOCK
 10
9.3914314308360076
 20
5.0178691326374292
 30
0.0
 11
7.062106826791525
 21
5.0178691326374292
 31
0.0
  0
LINE
  5
82A
  8
A1-DIMENSIONS
  6
BYBLOCK
 10
3.8764314308360071
 20
5.0178691326374292
 30
0.0
 11
6.2057560348804923
 21
5.0178691326374292
 31
0.0
  0
SOLID
  5
82B
  8
A1-DIMENSIONS
  6
BYBLOCK
 10
9.3914314308360076
 20
5.0478691326374259
 30
0.0
 11
9.3914314308360076
 21
4.9878691326374271
 31
0.0
 12
9.5714314308360073
 22
5.0178691326374292
 32
0.0
 13
9.5714314308360073
 23
5.0178691326374292
 33
0.0
  0
SOLID
  5
82C
  8
A1-DIMENSIONS
  6
BYBLOCK
 10
3.8764314308360071
 20
5.0478691326374259
 30
0.0
 11
3.8764314308360071
 21
4.9878691326374271
 31
0.0
 12
3.6964314308360069
 22
5.0178691326374292
 32
0.0
 13
3.6964314308360069
 23
5.0178691326374292
 33
0.0
  0
TEXT
  5
82D
  8
A1-DIMENSIONS
  6
BYBLOCK
 10
6.2529790498836268
 20
4.9553691326374292
 30
0.0
 40
0.125
  1
11 3/4
 51
15.0
  7
LEROY
 72
     1
 11
6.6339314308360091
 21
5.0178691326374292
 31
0.0
 73
     2
  0
POINT
  5
82E
  8
DEFPOINTS
  6
BYBLOCK
 62
     0
 10
3.6964314308360069
 20
7.5207074406396703
 30
0.0
  0
POINT
  5
82F
  8
A1-DIMENSIONS
  6
BYBLOCK
 10
3.6964314308360069
 20
5.0178691326374292
 30
0.0
  0
LINE
  5
830
  8
A1-DIMENSIONS
  6
BYBLOCK
 10
9.1339314308360073
 20
7.0366767380821731
 30
0.0
 11
9.1339314308360073
 21
5.680449856558579
 31
0.0
  0
LINE
  5
831
  8
A1-DIMENSIONS
  6
BYBLOCK
 10
4.1339314308360091
 20
7.0366767380821731
 30
0.0
 11
4.1339314308360091
 21
5.680449856558579
 31
0.0
  0
LINE
  5
832
  8
A1-DIMENSIONS
  6
BYBLOCK
 10
8.9539314308360094
 20
5.8604498565585779
 30
0.0
 11
6.8561658969620414
 21
5.8604498565585779
 31
0.0
  0
LINE
  5
833
  8
A1-DIMENSIONS
  6
BYBLOCK
 10
4.3139314308360071
 20
5.8604498565585779
 30
0.0
 11
6.411696964709976
 21
5.8604498565585779
 31
0.0
  0
SOLID
  5
834
  8
A1-DIMENSIONS
  6
BYBLOCK
 10
8.9539314308360094
 20
5.890449856558579
 30
0.0
 11
8.9539314308360094
 21
5.8304498565585812
 31
0.0
 12
9.1339314308360073
 22
5.8604498565585779
 32
0.0
 13
9.1339314308360073
 23
5.8604498565585779
 33
0.0
  0
SOLID
  5
835
  8
A1-DIMENSIONS
  6
BYBLOCK
 10
4.3139314308360071
 20
5.890449856558579
 30
0.0
 11
4.3139314308360071
 21
5.8304498565585812
 31
0.0
 12
4.1339314308360091
 22
5.8604498565585779
 32
0.0
 13
4.1339314308360091
 23
5.8604498565585779
 33
0.0
  0
TEXT
  5
836
  8
A1-DIMENSIONS
  6
BYBLOCK
 10
6.4553600022645803
 20
5.7979498565585779
 30
0.0
 40
0.125
  1
10"
 51
15.0
  7
LEROY
 72
     1
 11
6.6339314308360091
 21
5.8604498565585779
 31
0.0
 73
     2
  0
POINT
  5
837
  8
A1-DIMENSIONS
  6
BYBLOCK
 10
4.1339314308360091
 20
5.8604498565585779
 30
0.0
  0
LINE
  5
838
  8
A1-DIMENSIONS
  6
BYBLOCK
 10
3.6369979830435581
 20
6.6616767380821731
 30
0.0
 11
2.3853410981918381
 21
6.6616767380821731
 31
0.0
  0
LINE
  5
839
  8
A1-DIMENSIONS
  6
BYBLOCK
 62
     1
 10
3.808234768905352
 20
6.6616767380821731
 30
0.0
 11
3.7304647286597881
 21
6.6616767380821731
 31
0.0
  0
LINE
  5
83A
  8
A1-DIMENSIONS
  6
BYBLOCK
 10
3.6964314308360069
 20
6.7717346105719241
 30
0.0
 11
3.6964314308360069
 21
4.8378691326374259
 31
0.0
  0
LINE
  5
83B
  8
A1-DIMENSIONS
  6
BYBLOCK
 10
3.7996729296122642
 20
12.53667673808217
 30
0.0
 11
2.3853410981918381
 21
12.53667673808217
 31
0.0
  0
LINE
  5
83C
  8
A1-DIMENSIONS
  6
BYBLOCK
 62
     1
 10
10.18598158022743
 20
13.472076589437039
 30
0.0
 11
10.058702359613861
 21
13.599355810050611
 31
0.0
  0
LINE
  5
83D
  8
A1-DIMENSIONS
  6
BYBLOCK
 62
     1
 10
10.50683128219084
 20
13.15122688747366
 30
0.0
 11
10.63411050280442
 21
13.02394766686008
 31
0.0
  0
LINE
  5
83E
  8
A1-DIMENSIONS
  6
BYBLOCK
 62
     1
 10
10.63411050280442
 20
13.02394766686008
 30
0.0
 11
10.814110502804411
 21
13.02394766686008
 31
0.0
  0
SOLID
  5
83F
  8
A1-DIMENSIONS
  6
BYBLOCK
 62
     1
 10
10.207194783663031
 20
13.493289792872639
 30
0.0
 11
10.16476837679183
 21
13.45086338600143
 31
0.0
 12
10.31326080084099
 22
13.34479736882346
 32
0.0
 13
10.31326080084099
 23
13.34479736882346
 33
0.0
  0
SOLID
  5
840
  8
A1-DIMENSIONS
  6
BYBLOCK
 62
     1
 10
10.52804448562641
 20
13.172440090909239
 30
0.0
 11
10.485618078755239
 21
13.13001368403803
 31
0.0
 12
10.37955206157725
 22
13.27850610808723
 32
0.0
 13
10.37955206157725
 23
13.27850610808723
 33
0.0
  0
TEXT
  5
841
  8
A1-DIMENSIONS
  6
BYBLOCK
 62
     1
 10
10.89444171915572
 20
12.961447666860071
 30
0.0
 40
0.125
  1
3/16
 51
15.0
  7
LEROY
 72
     1
 11
11.141465528679531
 21
13.02394766686008
 31
0.0
 73
     2
  0
POINT
  5
842
  8
DEFPOINTS
  6
BYBLOCK
 62
     0
 10
9.3984459962756102
 20
12.42998256425801
 30
0.0
  0
POINT
  5
843
  8
DEFPOINTS
  6
BYBLOCK
 62
     0
 10
9.4647372570118531
 20
12.363691303521771
 30
0.0
  0
POINT
  5
844
  8
A1-DIMENSIONS
  6
BYBLOCK
 62
     1
 10
10.37955206157725
 20
13.27850610808723
 30
0.0
  0
LINE
  5
845
  8
A-LINE-OBJECT
 62
     7
 10
9.2840051660859917
 20
12.31554173406839
 30
0.0
 11
9.3984459962756102
 21
12.42998256425801
 31
0.0
  0
LINE
  5
846
  8
A-LINE-OBJECT
 62
     7
 10
9.3502964268222328
 20
12.24925047333215
 30
0.0
 11
9.4647372570118478
 21
12.363691303521771
 31
0.0
  0
TEXT
  5
847
  8
A1-DIMENSIONS
 10
11.479642775513691
 20
12.964276994445539
 30
0.0
 40
0.125
  1
TYP, (4) PLACES
 51
15.0
  7
LEROY
  0
SOLID
  5
848
  8
A1-DIMENSIONS
 10
9.226881285740804
 20
12.510803383432121
 30
0.0
 11
9.1687741241648038
 21
12.49585153493166
 31
0.0
 12
9.2426832504541956
 22
12.32900597445389
 32
0.0
 13
9.2426832504541956
 23
12.32900597445389
 33
0.0
  0
LINE
  5
849
  8
A1-DIMENSIONS
 10
9.1978277049528057
 20
12.503327459181881
 30
0.0
 11
8.7127509720864822
 21
14.38847444234896
 31
0.0
  0
LINE
  5
84A
  8
A1-DIMENSIONS
 10
8.7127509720864822
 20
14.38847444234896
 30
0.0
 11
8.8565480228281395
 21
14.38847444234896
 31
0.0
  0
SOLID
  5
84B
  8
A1-DIMENSIONS
 10
9.5149517997046527
 20
12.684607179643599
 30
0.0
 11
9.4619671228936451
 21
12.71276075886958
 31
0.0
 12
9.4039987236212248
 22
12.539729938823561
 32
0.0
 13
9.4039987236212248
 23
12.539729938823561
 33
0.0
  0
LINE
  5
84C
  8
A1-DIMENSIONS
 10
9.4884594612991506
 20
12.69868396925659
 30
0.0
 11
9.67334446841142
 21
13.04663519316372
 31
0.0
  0
LINE
  5
84D
  8
A1-DIMENSIONS
 10
9.67334446841142
 20
13.04663519316372
 30
0.0
 11
8.7127509720864822
 21
14.38847444234896
 31
0.0
  0
TEXT
  5
84E
  8
A1-DIMENSIONS
 10
8.9098332243719991
 20
14.329556658860181
 30
0.0
 40
0.125
  1
1/8 R, TYP, (16) PLACES
 51
15.0
  7
LEROY
  0
TEXT
  5
84F
  8
A1-NOTES
 10
14.29220698329364
 20
3.753998046755699
 30
0.0
 40
0.125
  1
MATERIAL:
 51
15.0
  7
LEROY
  0
TEXT
  5
850
  8
A1-NOTES
 10
14.29220698329364
 20
3.551617094374746
 30
0.0
 40
0.125
  1
ASTM A-36 PLATE
 51
15.0
  7
LEROY
  0
TEXT
  5
851
  8
A1-NOTES
 10
14.29220698329364
 20
3.349236141993793
 30
0.0
 40
0.125
  1
1/2 THK x 11 3/4 x 11 3/4
 51
15.0
  7
LEROY
  0
SOLID
  5
852
  8
A1-DIMENSIONS
 10
4.2100563208812094
 20
12.48246160545882
 30
0.0
 11
4.1504630097334863
 21
12.48943564779097
 31
0.0
 12
4.159337538310897
 22
12.30716869318173
 32
0.0
 13
4.159337538310897
 23
12.30716869318173
 33
0.0
  0
LINE
  5
853
  8
A1-DIMENSIONS
 10
4.1802596653073483
 20
12.4859486266249
 30
0.0
 11
4.537984036906062
 21
15.542709507403091
 31
0.0
  0
LINE
  5
854
  8
A1-DIMENSIONS
 10
4.537984036906062
 20
15.542709507403091
 30
0.0
 11
4.7179840369060644
 21
15.542709507403091
 31
0.0
  0
TEXT
  5
855
  8
A1-DIMENSIONS
 10
4.7955527436434471
 20
15.480209507403091
 30
0.0
 40
0.125
  1
7/8 DIA (BURNED) THRU, TYP (4) PLACES
 51
15.0
  7
LEROY
 72
     1
 11
6.8907908388815411
 21
15.542709507403091
 31
0.0
 73
     2
  0
TEXT
  5
856
  8
REV-A
 10
13.75
 20
15.75
 30
0.0
 40
0.125
  1
A    REDRAWN & REPLACED                     10/92  dak
 51
15.0
  7
LEROY
  0
TEXT
  5
857
  8
A1-BORDER-LABELS
 10
15.25
 20
1.125
 30
0.0
 40
0.125
  1
R.V.
 51
15.0
  7
LEROY
  0
TEXT
  5
858
  8
REV-A
 10
20.874999999999989
 20
15.75
 30
0.0
 40
0.125
  1
R.V.
 51
15.0
  7
LEROY
  0
POLYLINE
  5
859
  8
0
 66
     1
 10
0.0
 20
0.0
 30
0.0
  0
VERTEX
  5
8CF
  8
0
 10
9.1964314308360073
 20
6.6616767380821731
 30
0.0
  0
VERTEX
  5
8D0
  8
0
 10
9.3542518224514524
 20
6.6616767380821731
 30
0.0
  0
VERTEX
  5
8D1
  8
0
 10
6.6339314308360091
 20
6.6616767380821731
 30
0.0
  0
VERTEX
  5
8D2
  8
0
 10
3.9136110392205641
 20
6.6616767380821731
 30
0.0
  0
VERTEX
  5
8D3
  8
0
 10
4.5855085062358993
 20
6.6616767380821731
 30
0.0
  0
SEQEND
  5
8D4
  8
0
  0
TEXT
  5
860
  8
A-LINE-OBJECT
 10
4.1416006554381388
 20
2.534223104089226
 30
0.0
 40
0.375
  1
USED ON MOHAWK MODEL TR-25, FL-25 & TR-19
  7
LABEL
  0
LINE
  5
861
  8
A1-DIMENSIONS
 10
9.1964314308360073
 20
7.0991767380821731
 30
0.0
 11
11.76951971310833
 21
7.0991767380821722
 31
0.0
  0
LINE
  5
862
  8
A1-DIMENSIONS
 10
9.1964314308360073
 20
12.09917673808217
 30
0.0
 11
11.769519713108339
 21
12.09917673808217
 31
0.0
  0
LINE
  5
863
  8
A1-DIMENSIONS
 10
11.589519713108331
 20
7.2791767380821701
 30
0.0
 11
11.589519713108331
 21
9.4347719761774105
 31
0.0
  0
LINE
  5
864
  8
A1-DIMENSIONS
 10
11.589519713108331
 20
11.91917673808217
 30
0.0
 11
11.589519713108331
 21
9.7635814999869357
 31
0.0
  0
SOLID
  5
865
  8
A1-DIMENSIONS
 10
11.55951971310833
 20
7.2791767380821701
 30
0.0
 11
11.61951971310833
 21
7.2791767380821701
 31
0.0
 12
11.589519713108331
 22
7.0991767380821722
 32
0.0
 13
11.589519713108331
 23
7.0991767380821722
 33
0.0
  0
SOLID
  5
866
  8
A1-DIMENSIONS
 10
11.55951971310833
 20
11.91917673808217
 30
0.0
 11
11.61951971310833
 21
11.91917673808217
 31
0.0
 12
11.58951971310834
 22
12.09917673808217
 32
0.0
 13
11.58951971310834
 23
12.09917673808217
 33
0.0
  0
TEXT
  5
867
  8
A1-DIMENSIONS
 10
11.37990429460134
 20
9.5366767380821766
 30
0.0
 40
0.125
  1
10"
 51
15.0
  7
LEROY
  0
LINE
  5
868
  8
A1-DIMENSIONS
 10
13.84177435351136
 20
6.5991767380821731
 30
0.0
 11
13.84177435351136
 21
5.7053537203197981
 31
0.0
  0
LINE
  5
869
  8
A1-DIMENSIONS
 10
14.09177435351137
 20
6.5991767380821731
 30
0.0
 11
14.09177435351137
 21
5.7053537203197981
 31
0.0
  0
LINE
  5
86A
  8
A1-DIMENSIONS
 10
13.66177435351136
 20
5.885353720319797
 30
0.0
 11
13.48177435351136
 21
5.885353720319797
 31
0.0
  0
LINE
  5
86B
  8
A1-DIMENSIONS
 10
14.271774353511351
 20
5.885353720319797
 30
0.0
 11
14.45177435351135
 21
5.885353720319797
 31
0.0
  0
TEXT
  5
86C
  8
A1-DIMENSIONS
 10
13.506575148032031
 20
5.2377346727007481
 30
0.0
 40
0.125
  1
1/2 REF
 51
15.0
  7
LEROY
  0
SOLID
  5
86D
  8
A1-DIMENSIONS
 10
13.66177435351136
 20
5.9153537203197981
 30
0.0
 11
13.66177435351136
 21
5.8553537203197958
 31
0.0
 12
13.84177435351136
 22
5.885353720319797
 32
0.0
 13
13.84177435351136
 23
5.885353720319797
 33
0.0
  0
SOLID
  5
86E
  8
A1-DIMENSIONS
 10
14.271774353511351
 20
5.9153537203197981
 30
0.0
 11
14.271774353511351
 21
5.8553537203197958
 31
0.0
 12
14.09177435351137
 22
5.885353720319797
 32
0.0
 13
14.09177435351137
 23
5.885353720319797
 33
0.0
  0
ENDSEC
  0
EOF
